Oops, an error
Loading. Please wait.

Home Tab

version 4
version 4

Whole song

11,127 views 21 this week
3 commentsread comments
1 2 3 4 5
x 14
add to favorites
launch autoscroll
font size
0
reset
how to read this tab
guitar tuner
×
Best way to learn
"Home"
Autoscroll
slow
fast
+/-
esc
set tempo
stop
Author
Difficulty
  follow
intermediate
[INTRO]
[Guitar 1]
e|---------------------------------------|
B|---------------------------------------|
G|-----10---10---10---10---7---7---7---7-|
D|---------------------------------------|
A|---------------------------------------|
E|--10---10---10---10---6---6---6---6----|

e|----------------------------------|
B|----------------------------------|
G|----5---5---5---5---5---5---9---9-|
D|----------------------------------|
A|----------------------------------|
E|--5---5---5---5---5---5---8---8---|

[Guitar 2](originally this part is played on banjo)
e|----------------------------------------------------------------------|
B|----------------------------------------------------------------------|
G|--10--10--9--9--7--5--7--5--0--2--5--2--0--2-----10--9--9--7--5--7--5-|
D|----------------------------------------------3-----------------------|
A|----------------------------------------------------------------------|
E|----------------------------------------------------------------------|

[VERSE 1]
               I ran     away...
e|---------------------------------------|
B|---------------------------------------|
G|-----10---10---10---10---7---7---7---7-|
D|---------------------------------------|
A|---------------------------------------|
E|--10---10---10---10---6---6---6---6----|

    ...shame...            ...came
e|----------------------------------|
B|----------------------------------|
G|----5---5---5---5---5---5---9---9-|
D|----------------------------------|
A|----------------------------------|
E|--5---5---5---5---5---5---8---8---|

                     ...as I crossed...
e|---------------------------------------|
B|---------------------------------------|
G|-----10---10---10---10---7---7---7---7-|
D|---------------------------------------|
A|---------------------------------------|
E|--10---10---10---10---6---6---6---6----|

   ...road
e|----------------------------------|
B|----------------------------------|
G|----5---5---5---5---5---5---5---5-|
D|----------------------------------|
A|----------------------------------|
E|--5---5---5---5---5---5---5---5---|

You went left and I went right
As the moon hung proud and white
You would have loved it here tonight

[BRIDGE]
        Spin me round...
e|----------------------------------|
B|----------------------------------|
G|----9---9---9---9---7---7---7---7-|
D|----------------------------------|
A|----------------------------------|
E|--8---8---8---8---6---6---6---6---|

 ..on the cover...   ...bed
e|----------------------------------|
B|----------------------------------|
G|----5---5---5---5---5---5---6---6-|
D|----------------------------------|
A|----------------------------------|
E|--5---5---5---5---5---5---5---5---|

      Spin me round...     ...pin me down.
e|--------------------------------------|
B|--------------------------------------|
G|----10---10---10---10---7---7---7---7-|
D|--------------------------------------|
A|--------------------------------------|
E|--10---10---10---10---6---6---6---6---|

e|----------------------------------|
B|----------------------------------|
G|----5---5---5---5---5---5---5---5-|
D|----------------------------------|
A|----------------------------------|
E|--5---5---5---5---5---5---5---5---|

[VERSE 2]
Roll out your questions, keep them down
Let the water lead us home
And I was sorry for what I'd done

You were young, I was not old
But our story was not told,
But torn apart by greedy hands!

[BRIDGE]
Spin me round just to pin me down
On the cover of this strange bed
spin me round just to pin me down

Spin me round just to pin me down
I'll be gone by the nights end
Spin me round just to pin me down

[CHORUS]
 I'll be home...
e|----------------------------------|
B|----------------------------------|
G|----9---9---9---9---9---9---9---9-|
D|----------------------------------|
A|----------------------------------|
E|--8---8---8---8---8---8---8---8---|

 In a little while...
e|----------------------------------|
B|----------------------------------|
G|----7---7---7---7---7---7---7---7-|
D|----------------------------------|
A|----------------------------------|
E|--6---6---6---6---6---6---6---6---|

 Oh lover I'll be home.
e|----------------------------------|
B|----------------------------------|
G|----2---2---2---2---2---2---3---3-|
D|----------------------------------|
A|----------------------------------|
E|--1---1---1---1---1---1---1---1---|

e|----------------------------------|
B|----------------------------------|
G|----2---2---2---2---2---2---2---2-|
D|----------------------------------|
A|----------------------------------|
E|--1---1---1---1---1---1---1---1---|

(Repeat chorus)
Suggest correction
comments
print report bad tab
3 comments total.
0 reply
verbe13 31 Aug 01, 2013 03:56 AM

|----------------------------------|
|----------------------------------|
|----5---5---5---5---5---5---9---9-|
|----------------------------------|
|----------------------------------|
|--5---5---5---5---5---5---8---8---|

instead of this, I should do this:

|----------------------------------|
|----------------------------------|
|----5---5---5---5---5---5---9---9-|
|----------------------------------|
|--3---3---3---3---3---3-----------|
|--------------------------8---8---|

0 reply
drewbird13 10 Oct 21, 2014 10:26 AM

I should tune by b string up one half step and instead of verbe13's 5-3 I should play
|----------------------------------|
|----0---0---0---0---0---0---------|
|----------------------------9---9-|
|----------------------------------|
|----------------------------------|
|--1---1---1---1---1---1---8---8---|

0 reply
Bookworm0103 10 Aug 02, 2015 09:27 AM

This is awesome! Thanks for this tab!

guest
You may want to rate the tab now too:
select rating
Wanna post a correction for this tab? Suggest correction