Oops, an error
Loading. Please wait.

I Gave You All Tab

version 1
version 1

Interactive

133,216 views 57 this week
15 commentsread comments
1 2 3 4 5
x 34
add to favorites
launch autoscroll
font size
0
reset
how to read this tab
guitar tuner
Autoscroll
slow
fast
+/-
esc
set tempo
stop
Help us to improve Ultimate-Guitar.com Take our survey!
×
Author
Difficulty
advanced
Artist: Mumford And Sons
Song: I Gave You All
Album: Sigh No More (2009)

This is the tab for I Gave You All by Mumford And Sons. Sounds pretty right to me! Enjoy!

***NOTE: When I put an asterisk (*) next to a number, that means play the pattern one 
full time, then going to the second time on the pattern just pluck the two strings 
together and don't finish pattern, move on.

When I put an upward arrow thing (^) next to a number, that means just pluck those two 
strings indicated at the same time, and do not go into the pattern.

Open D Minor Tuning: DADFAD
No Capo

[Picking Pattern]
D|--------------|
A|--------------|
F|-x-----------x|
D|--------x-----|
A|--------------|
D|-x---x-----x--|
Pick that pattern fast.

[Main Riff]
D|---|---|---|---|
A|---|---|---|---|
F|-5-|-4-|-2-|-0-|
D|---|---|---|---| Play pattern 2 times at each interval. So like fingers with
A|---|---|---|---| your fingers on five play the pattern twice at 5, then go
D|-5-|-3-|-2-|-0-| down

[Riff 1]
(When I have the "x_" that's how many times you do the pattern each):
D|---|---|----|----|---|---|---|---|
A|---|---|----|----|---|---|---|---|
F|-5-|-4-|-11-|-12-|-5-|-4-|-2-|-0-|
D|---|---|----|----|---|---|---|---|
A|---|---|----|----|---|---|---|---|
D|-5-|-3-|-10-|-12-|-5-|-3-|-2-|-0-|
 x2  x1   x1   x2  x2  x2  x2  x2

[Riff 2]
(Reference NOTE section at top of tab for key):
D|----|----|---|----|---|---|---|---|
A|-12-|-10-|-8-|-10-|-3-|-5-|-7-|-3-|
F|----|----|---|----|---|---|---|---|
D|----|----|---|----|---|---|---|---|
A|----|----|---|----|---|---|---|---|
D|-12-|-10-|-8-|-10-|-3-|-5-|-7-|-3-|
 x2*  x1^  x2* x1^  x1^ x1^ x1^ x2

This is played exactly like the pattern except use the high F & A strings instead of the 
middle D & F strings.

[Riff 3]
D|---|---|---|---|---|---|---|---|
A|---|---|---|---|---|---|---|---|
F|-2-|-0-|-4-|-5-|-2-|-0-|-4-|-5-|
D|---|---|---|---|---|---|---|---|
A|---|---|---|---|---|---|---|---|
D|-1-|-0-|-4-|-5-|-1-|-0-|-4-|-5-|
 x2* x1  x1  x2  x2  x2  x1  x4

[Riff 4]
D|---|---|----|----|---|---|----|----|---|---|----|----|---|---|----|----|---|
A|---|---|----|----|---|---|----|----|---|---|----|----|---|---|----|----|---|
F|-9-|-7-|-12-|-11-|-9-|-7-|-12-|-11-|-9-|-7-|-12-|-11-|-9-|-7-|-12-|-11-|-9-|
D|---|---|----|----|---|---|----|----|---|---|----|----|---|---|----|----|---|
A|---|---|----|----|---|---|----|----|---|---|----|----|---|---|----|----|---|
D|-8-|-7-|-12-|-10-|-8-|-7-|-12-|-10-|-8-|-7-|-12-|-10-|-8-|-7-|-12-|-10-|-8-|
 x2* x1^  x2*  x2  x2* x1^  x1^  x3  x2* x1^  x1   x4  x2* x1^  x1   x1  x2*

D|----|----|
A|----|----|
F|-12-|-11-|
D|----|----|
A|----|----|
D|-12-|-10-|
  x1   x4

[Riff 5]
(Strumming Section, listen to song to time how many strums of each):
D|---|---|---|---|---|---|---|----|---|---|---|----|----|
A|---|---|---|---|---|---|---|----|---|---|---|----|----|
F|-5-|-4-|-7-|-5-|-4-|-7-|-9-|-11-|-5-|-4-|-7-|-11-|-12-|
D|-0-|-0-|-0-|-0-|-0-|-0-|-0-|-0--|-0-|-0-|-0-|-0--|-0--|
A|-0-|-0-|-0-|-0-|-0-|-0-|-0-|-0--|-0-|-0-|-0-|-0--|-0--|
D|-5-|-4-|-7-|-5-|-4-|-7-|-8-|-10-|-5-|-4-|-7-|-10-|-12-|

[Chorus Riff]
(use pattern picking):
D|---|---|---|
A|---|---|---|
F|-5-|-4-|-5-|
D|---|---|---|
A|---|---|---|
D|-5-|-3-|-5-|
Listen to song for timing of picking.

END TAB

Layout of the song:

Intro:
  Main Riff (x2)

Verse 1:
  Main Riff (x2)
  Riff 1 (x1)
  Main Riff (x1)

Chorus ("Close my eyes for a while.."):
  Chorus Riff (x2)
  Riff 2 (x2)

Verse 2:
  Main Riff (x2)
  Riff 1 (x1
  Main Riff (x1)

Refrain ("I gave you all.."):
  Riff 4 (x1 or 2)

Chorus:
  Chorus Riff (x2, strum it)

Refrain:
  Riff 4 (strum, listen to song for timing)

Verse 3:
  Main Riff (whole way through, strumming)

Refrain:
  Riff 4 or 5 (can't exactly tell)

Outro:
  Riff 2 (picking)
  Riff 3
  Riff 2

  End with one open strum.


END



************************************

| x  Dead note

************************************
Suggest correction
comments
print report bad tab
15 comments total. Showing first comments.
+1 reply
Lord Guitarhead 92 Jan 28, 2011 11:37 PM

spot on mate this is mint good t ave a tab for this instead of just chords thanks alot :)

0 reply
NINtrentreznor 230 Feb 04, 2011 04:17 PM

Ah thanks man. I'm glad I got it!

0 reply
dudesrock666 21 Mar 10, 2011 10:17 AM

Hey! First off, wicked tab. I've been looking for this for ages! I found a video that gives a good view of what Marcus does, and in that version he does this (might be different to normal..?):

http://www.youtube.com/watch?v=weJ7UOo2glo



|---|---|---|----|----|
|---|---|---|----|----|
|-5-|-4-|-7-|-11-|-12-| Riff for final verse
|---|---|---|----|----|
|---|---|---|----|----|
|-5-|-3-|-7-|-10-|-12-|
x2* x1^ x1* x2* x2

|----|----|---| |----|----|
|----|----|---| |----|----| "You've won..."
|-12-|-11-|-9-| x3 |-12-|-11-| (strumming, followed by
|----|----|---| |----|----| a few bars of
|----|----|---| |----|----| fingerpicked riff 4)
|-12-|-10-|-8-| |-12-|-10-|
x1 x1 x2 x1 x4

|---|---|---|---|
|---|---|---|---|
|-2-|-4-|-4-|-5-| Also, I think this is the
|---|---|---|---| chorus (based on the video)
|---|---|---|---|
|-1-|-3-|-4-|-5-|
x2 x1* x1* x2

guest
You may want to rate the tab now too:
select rating
Wanna post a correction for this tab? Suggest correction