Oops, an error
Loading. Please wait.

I Gave You All Tab

version 2
version 2
8,384 views 6 this week
1 commentread comment
1 2 3 4 5
worth learning
x 4
add to favorites
launch autoscroll
font size
0
reset
how to read this tab
guitar tuner
Tab Pro tools
  • play this tab
  • loop segment
  • change instrument
  • show fretboard
  • metronome
×
Best way to learn
"I Gave You All"
Autoscroll
slow
fast
+/-
esc
set tempo
stop
Contributor
Difficulty
Tuning
intermediate
D G C F A D
Mumford and Sons - I gave you all
OPEN D MINOR TUNING (DADFAD)

This tablature isn't entirely accurate. I don't know the 3rd string trill and the "I
gave you all" part is more of a suggestion with chord progressions. Nonetheless, I hope you
enjoy! Please feel free to elaborate some of said parts, I'd love to see a fully 
accurate version.

INTRO:

|--------------------------------|
|--------------------------------|
|*-5-----------5--5-----------5-*|
|*-------0--------------0-------*|
|--------------------------------|
|--5--5-----5-----5--5-----5-----|

VERSE 1:
                  Rip the earth                   in
|------------------------------|-------------------------------|
|------------------------------|-------------------------------|
|-5-----------5--5-----------5-|-4-----------4--4-----------4--|
|-------0--------------0-------|-------0--------------0--------|
|------------------------------|-------------------------------|
|-5--5-----5-----5--5-----5----|-3--3-----3-----3--3-----3-----|

 two              With your mind
|------------------------------|-------------------------------|
|------------------------------|-------------------------------|
|-2-----------2--2-----------2-|-0-----------0--0-----------0--|
|-------0--------------0-------|-------0--------------0--------|
|------------------------------|-------------------------------|
|-2--2-----2-----2--2-----2----|-0--0-----0-----0--0-----0-----|

                   Seal the urge                  which
|------------------------------|-------------------------------|
|------------------------------|-------------------------------|
|-5-----------5--5-----------5-|-4-----------4--4-----------4--|
|-------0--------------0-------|-------0--------------0--------|
|------------------------------|-------------------------------|
|-5--5-----5-----5--5-----5----|-3--3-----3-----3--3-----3-----|

 ensues           With brass wires
|------------------------------|-------------------------------|
|------------------------------|-------------------------------|
|-2-----------2--2-----------2-|-0-----------0--0-----------0--|
|-------0--------------0-------|-------0--------------0--------|
|------------------------------|-------------------------------|
|-2--2-----2-----2--2-----2----|-0--0-----0-----0--0-----0-----|

                  I never meant you any           harm
|------------------------------|-------------------------------|
|------------------------------|-------------------------------|
|-5-----------5--5-----------5-|-4-----------4--11----------11-|
|-------0--------------0-------|-------0--------------0--------|
|------------------------------|-------------------------------|
|-5--5-----5-----5--5-----5----|-3--3-----3-----10-10----10----|

|------------------------------|
|------------------------------|
|-12----------12-12----------12|
|-------0--------------0-------|
|------------------------------|
|-12-12----12----12-12----12---|

(unsure about lyric timing below)

                  But your tears feel warm as they fall
|------------------------------|-------------------------------|
|------------------------------|-------------------------------|
|-5-----------5--5-----------5-|-4-----------4--4-----------4--|
|-------0--------------0-------|-------0--------------0--------|
|------------------------------|-------------------------------|
|-5--5-----5-----5--5-----5----|-3--3-----3-----3--3-----3-----|

on my forearm
|------------------------------|-------------------------------|
|------------------------------|-------------------------------|
|-2-----------2--2-----------2-|-0-----------0--0-----------0--|
|-------0--------------0-------|-------0--------------0--------|
|------------------------------|-------------------------------|
|-2--2-----2-----2--2-----2----|-0--0-----0-----0--0-----0-----|

CHORUS:
Close my eyes for awhile
|------------------------------|-------------------------------|
|------------------------------|-------------------------------|
|-5-----------5--5-----------5-|-4-----------4--4-----------4--|
|-------0--------------0-------|-------0--------------0--------|
|------------------------------|-------------------------------|
|-5--5-----5-----5--5-----5----|-3--3-----3-----3--3-----3-----|

Force from the world a patient smile
|------------------------------|-------------------------------|
|------------------------------|-------------------------------|
|-5-----------5--5-----------5-|-5-----------5--5-----------5--|
|-------0--------------0-------|-------0--------------0--------|
|------------------------------|-------------------------------|
|-5--5-----5-----5--5-----5----|-5--5-----5-----5--5-----5-----|

|------------------------------|-------------------------------|
|------------------------------|-------------------------------|
|-4-----------4--4-----------4-|-5-----------5--5-----------5--|
|-------0--------------0-------|-------0--------------0--------|
|------------------------------|-------------------------------|
|-3--3-----3-----3--3-----3----|-5--5-----5-----5--5-----5-----|

RIFF:

|---------------------------------------------------------------------------|
|--12----------12-12-10-8-----------8--10-3--5--7--3--------3--3--------3---|
|*-------------------------------------------------------------------------*|
|*-------0--------------------0-----------------------0-----------0--------*|
|---------------------------------------------------------------------------|
|--12-12----12----12-10-8--8-----8--8--10-3--5--7--3-----3-----3-----3------|

VERSE 2:
                  How can you say               that your truth
|------------------------------|-------------------------------|
|------------------------------|-------------------------------|
|-5-----------5--5-----------5-|-4-----------4--4-----------4--|
|-------0--------------0-------|-------0--------------0--------|
|------------------------------|-------------------------------|
|-5--5-----5-----5--5-----5----|-3--3-----3-----3--3-----3-----|

 is better than ours?
|------------------------------|-------------------------------|
|------------------------------|-------------------------------|
|-2-----------2--2-----------2-|-0-----------0--0-----------0--|
|-------0--------------0-------|-------0--------------0--------|
|------------------------------|-------------------------------|
|-2--2-----2-----2--2-----2----|-0--0-----0-----0--0-----0-----|

                 Shoulder to shoulder           now brother
|------------------------------|-------------------------------|
|------------------------------|-------------------------------|
|-5-----------5--5-----------5-|-4-----------4--4-----------4--|
|-------0--------------0-------|-------0--------------0--------|
|------------------------------|-------------------------------|
|-5--5-----5-----5--5-----5----|-3--3-----3-----3--3-----3-----|

 we carry no arms
|------------------------------|-------------------------------|
|------------------------------|-------------------------------|
|-2-----------2--2-----------2-|-0-----------0--0-----------0--|
|-------0--------------0-------|-------0--------------0--------|
|------------------------------|-------------------------------|
|-2--2-----2-----2--2-----2----|-0--0-----0-----0--0-----0-----|

                  The blind man sleeps in the doorway his home
|------------------------------|-------------------------------|
|------------------------------|-------------------------------|
|-5-----------5--5-----------5-|-4-----------4--11----------11-|
|-------0--------------0-------|-------0--------------0--------|
|------------------------------|-------------------------------|
|-5--5-----5-----5--5-----5----|-3--3-----3-----10-10----10----|

|------------------------------|
|------------------------------|
|-12----------12-12----------12|
|-------0--------------0-------|
|------------------------------|
|-12-12----12----12-12----12---|

                  If only I had an enemy greater than my apathy
|------------------------------|-------------------------------|
|------------------------------|-------------------------------|
|-5-----------5--5-----------5-|-4-----------4--4-----------4--|
|-------0--------------0-------|-------0--------------0--------|
|------------------------------|-------------------------------|
|-5--5-----5-----5--5-----5----|-3--3-----3-----3--3-----3-----|

 I could have won
|------------------------------|-------------------------------|
|------------------------------|-------------------------------|
|-2-----------2--2-----------2-|-0-----------0--0-----------0--|
|-------0--------------0-------|-------0--------------0--------|
|------------------------------|-------------------------------|
|-2--2-----2-----2--2-----2----|-0--0-----0-----0--0-----0-----|


****Part below you kinda have to mess with. I couldn't get it, but the general idea is there******

I gave you aaaaaaaaaaaaaaaaalllllllllllll
|-----------------------------------------------------------------------|
|-----------------------------------------------------------------------|
|*-9-----------9--9--7--12----------12-12-11----------11-11----------11-|
|*-------0--------------------0-----------------0--------------0--------|
|-----------------------------------------------------------------------|
|--8--8-----8-----8--7--12-12----12----12-10-10----10----10-10----10----|

|-----------------------------------------------------------------------|
|-----------------------------------------------------------------------|
|-9-----------9--9--7--12-11----------11-11----------11-11----------11-*|
|-------0-----------------------0--------------0--------------0--------*|
|-----------------------------------------------------------------------|
|-8--8-----8-----8--7--12-10-10----10----10-10----10----10-10----10-----|

CHORUS:
Close my eyes for awhile
|------------------------------|-------------------------------|
|------------------------------|-------------------------------|
|-5-----------5--5-----------5-|-4-----------4--4-----------4--|
|-------0--------------0-------|-------0--------------0--------|
|------------------------------|-------------------------------|
|-5--5-----5-----5--5-----5----|-3--3-----3-----3--3-----3-----|

Force from the world a patient smile
|------------------------------|-------------------------------|
|------------------------------|-------------------------------|
|-5-----------5--5-----------5-|-5-----------5--5-----------5--|
|-------0--------------0-------|-------0--------------0--------|
|------------------------------|-------------------------------|
|-5--5-----5-----5--5-----5----|-5--5-----5-----5--5-----5-----|

|------------------------------|-------------------------------|
|------------------------------|-------------------------------|
|-4-----------4--4-----------4-|-5-----------5--5-----------5--|
|-------0--------------0-------|-------0--------------0--------|
|------------------------------|-------------------------------|
|-3--3-----3-----3--3-----3----|-5--5-----5-----5--5-----5-----|

******Once again, not correct but gives general idea******

I gave you aaaaaaaaaaaaaaaaalllllllllllll
|-----------------------------------------------------------------------|
|-----------------------------------------------------------------------|
|*-9-----------9--9--7--12----------12-12-11----------11-11----------11-|
|*-------0--------------------0-----------------0--------------0--------|
|-----------------------------------------------------------------------|
|--8--8-----8-----8--7--12-12----12----12-10-10----10----10-10----10----|

|-----------------------------------------------------------------------|
|-----------------------------------------------------------------------|
|-9-----------9--9--7--12-11----------11-11----------11-11----------11-*|
|-------0-----------------------0--------------0--------------0--------*|
|-----------------------------------------------------------------------|

But you rip it from my hands and you swear it's all gone
(STRUM)
|-x-|-x-|-x-|-x-|-x-|-x-|-x-|-x-|-x-|-x-|-x-|-x-|-x-|
|-x-|-x-|-x-|-x-|-x-|-x-|-x-|-x-|-x-|-x-|-x-|-x-|-x-|
|-5-|-4-|-7-|-5-|-4-|-7-|-9-|-11|-5-|-4-|-7-|-11|-12|
|-0-|-0-|-0-|-0-|-0-|-0-|-0-|-0-|-0-|-0-|-0-|-0-|-0-|
|-0-|-0-|-0-|-0-|-0-|-0-|-0-|-0-|-0-|-0-|-0-|-0-|-0-|
|-5-|-4-|-7-|-5-|-4-|-7-|-8-|-10|-5-|-4-|-7-|-10|-12|

And you rip out all I have just to say that you've won
|-x-|-x-|-x-|-x-|-x-|-x-|-x-|-x-|-x-|-x-|-x-|-x-|-x-|
|-x-|-x-|-x-|-x-|-x-|-x-|-x-|-x-|-x-|-x-|-x-|-x-|-x-|
|-5-|-4-|-7-|-5-|-4-|-7-|-9-|-11|-5-|-4-|-7-|-11|-12|
|-0-|-0-|-0-|-0-|-0-|-0-|-0-|-0-|-0-|-0-|-0-|-0-|-0-|
|-0-|-0-|-0-|-0-|-0-|-0-|-0-|-0-|-0-|-0-|-0-|-0-|-0-|
|-5-|-4-|-7-|-5-|-4-|-7-|-8-|-10|-5-|-4-|-7-|-10|-12|

Well now you've won
|-x-|-x-|-x-|-x-|-x-|-x-|-x-|-x-|-x-|-x-|-x-|-x-|-x---|
|-x-|-x-|-x-|-x-|-x-|-x-|-x-|-x-|-x-|-x-|-x-|-x-|-x---|
|-5-|-4-|-7-|-5-|-4-|-7-|-9-|-11|-5-|-4-|-7-|-11|-12--|
|-0-|-0-|-0-|-0-|-0-|-0-|-0-|-0-|-0-|-0-|-0-|-0-|-0---|
|-0-|-0-|-0-|-0-|-0-|-0-|-0-|-0-|-0-|-0-|-0-|-0-|-0---|
|-5-|-4-|-7-|-5-|-4-|-7-|-8-|-10|-5-|-4-|-7-|-10|-12--|

I gave you alllll
|------------------------------------------------------------------------|
|------------------------------------------------------------------------|
|*-9-----------9--9--7--12----------12-12-11----------11-11----------11-*|
|*-------0--------------------0-----------------0--------------0--------*|
|------------------------------------------------------------------------|
|--8--8-----8-----8--7--12-12----12----12-10-10----10----10-10----10-----|
comments
print report bad tab
1 comment total.
0 reply
TSeguin9 wrote on July 27 2011, 10:18 pm

aha kinda confusing but good

I want to post or [tab]
guest
You may want to rate the tab now too:
select rating
Please do not post tabs as comments. Select "correction" instead!