Oops, an error
Loading. Please wait.

I Gave You All Tab

version 3
version 3
22,184 views 3 this week
3 commentsread comments
1 2 3 4 5
accurate
x 15
add to favorites
launch autoscroll
font size
0
reset
how to read this tab
guitar tuner
Tab Pro tools
  • play this tab
  • loop segment
  • change instrument
  • show fretboard
  • metronome
×
Best way to learn
"I Gave You All"
Autoscroll
slow
fast
+/-
esc
set tempo
stop
Contributor
Difficulty
intermediate
Standard tuning, no capo
There are parts that i'm not sure they're right but in general it sounds great!


Intro   X2
                  
e|-----------------------|-----------------------|-----------------------|-----------------------|
B|-----------------------|-----------------------|-----------------------|-----------------------|
G|---3-----3---3-----3---|2-----2---2-----2---0--|---0---0-----0---------|-----------------------|
D|------0---------0------|---0---------0---------|0---------0------3--0--|-3---3--0--3-----------|
A|-----------------------|-----------------------|-----------------------|-----------------------|
E|---3---------3---------|1---------1---------3--|-------3---------1-----|-----1-----------------|


Verse 1


e|-----------------------|-----------------------|-----------------------|--------------------|
B|-----------------------|-----------------------|-----------------------|--------------------|
G|---3-----3---3-----3---|2-----2---2-----2---0--|---0---0-----0---------|--------------------|
D|------0---------0------|---0---------0---------|0---------0------3--0--|-3---3--0--3--------|X2
A|-----------------------|-----------------------|-----------------------|--------------------|
E|---3---------3---------|1---------1---------3--|-------3---------1-----|-----1--------------|
               "Rip the earth in ............ two with your mind....."
               "Seal the urge which .......ensues with brass wires"


e|-----------------------|----------0-----0---1--|---1---1-----1---------|
B|-----------------------|-----------------------|-----------------------|
G|---3-----3---3-----3---|2-----2------2---------|2---------2------3-----|
D|------0---------0------|---0----------------0--|-------0------------0--|
A|-----------------------|----------3------------|-----------------------|
E|---3---------3---------|1----------------------|-----------------3-----|
               "I never meant you any harm....."

-----------------------|-----------------------|-----------------------|-----------------------|
-----------------------|-----------------------|-----------------------|------------3----------|
3---3-----3---2-----2--|-2-----2---0-----0---0-|----0--2---------2-----|---2-----2--------2----|
-------0---------0-----|----0---------0--------|-0-----3------3--------|3-----3--------3-------| 
-----------------------|-----------------------|-------5---5--------5--|-----------------------|
----3---------1--------|-1---------3---------3-|-----------------------|-----------------------|
   "But your tears feel warm as they fall on my forearm"


              
e|-----------------------|-----------------------|-----------------------|
B|-----------------------|-----------------------|-----------------------|
G|---3-----3---3-----3---|2-----2---2-----2---3--|---3---3-----3---3-----|
D|------0---------0------|---0---------0---------|0---------0---------0--|
A|-----------------------|-----------------------|-----------------------|
E|---3---------3---------|1---------1---------3--|-------3---------3-----|
               "I close my eyes for a while....."
                      
-----------------------|-----------------------|-----------------------|-----------------------|
-----------------------|-----------------------|-----------------------|-----------------------|
3---3-----3---3-----3--|-3-----3---2-----2---2-|----2---3-----3---3----|-3---3-----3---3-----3-|
-------0---------0-----|----0---------0--------|-0---------0---------0-|--------0---------0----|
--------------1--------|-1---------0---------0-|--------1---------1----|-----1---------1-------|
----3------------------|-----------------------|-----------------------|-----------------------|
                          "And force from the world a patient smile..."



e|---5-----5---5---3---1-|----1---1---3-------0--|-----------------------|
B|------6----------------|-3--------------1-3----|-1-----1---1-----1-----|
G|-----------------------|-----------------------|----2---------2--------|
D|-----------------------|-----------------------|-----------------------|
A|---5---------5---3---1-|--------1---3-----1-3--|-----------------------|
E|-----------------------|----------------1------|-1---------1-----------|

---5-----5---5---3---1-|----1---1---3-------0--|-----------------------|-----------------------|
------6----------------|-3--------------1-3----|-1-----1---1-----1---1-|----1---1-----1--------|
-----------------------|-----------------------|----2---------2--------|-2---------2-----------|
-----------------------|-----------------------|-----------------------|-----------------------|
---5---------5---3---1-|--------1---3-----1-3--|-----------------------|-----------------------|
-----------------------|----------------1------|-1---------1---------1-|--------1--------------|


Verse 2
              
e|-----------------------|-----------------------|-----------------------|--------------------|
B|-----------------------|-----------------------|-----------------------|--------------------|
G|---3-----3---3-----3---|2-----2---2-----2---0--|---0---0-----0---------|--------------------|
D|------0---------0------|---0---------0---------|0---------0------3--0--|-3---3--0--3--------|X2
A|-----------------------|-----------------------|-----------------------|--------------------|
E|---3---------3---------|1---------1---------3--|-------3---------1-----|-----1--------------|
               "How can you say that your truth is better than ours?"
               "Shoulder to shoulder, now brother, we carry no arms"


e|-----------------------|----------0-----0---1--|---1---1-----1---------|
B|-----------------------|-----------------------|-----------------------|
G|---3-----3---3-----3---|2-----2------2---------|2---------2------3-----|
D|------0---------0------|---0----------------0--|-------0------------0--|
A|-----------------------|----------3------------|-----------------------|
E|---3---------3---------|1----------------------|-----------------3-----|
              "The blind man sleeps in the doorway, his home"

-----------------------|-----------------------|-----------------------|-----------------------|
-----------------------|-----------------------|-----------------------|------------3----------|
3---3-----3---2-----2--|-2-----2---0-----0---0-|----0--2---------2-----|---2-----2--------2----|
-------0---------0-----|----0---------0--------|-0-----3------3--------|3-----3--------3-------| 
-----------------------|-----------------------|-------5---5--------5--|-----------------------|
----3---------1--------|-1---------3---------3-|-----------------------|-----------------------|
    "If only I had an enemy bigger than my apathy I could have won"



e|-----------------1-----|1-0-----0---0-----1-0--|-------------1-----1-0-|
B|---3-----3---3-1-------|----------------------3|-----3---3-1-----------|
G|------3-------------2--|-----2---------2-------|--3-------------2------|
D|-----------------0-----|-----------------------|-------------0---------|
A|---1---------1---------|--3---------3---------1|---------1-----------3-|
E|---------------1-------|-----------------------|-----------1-----------|
     "But I gave you all......"                   "But I gave you all..."

----0---0-----1-0------|---------1-----1-0-----|0---0-----0------------|
------------------3----|-3---3-1---------------|-----------------------|
-2---------2---------3-|------------2-------2--|-------2---------------|
-----------------------|---------0-------------|-----------------------|
--------3---------1----|-----1-----------3-----|----3------------------|
-----------------------|-------1---------------|-----------------------|
                       "I gave you all...."

      Bb        Dm        D       Gm        C        F
      1         1         2        3        0        1
      3         3         3        3        1        1
      3         2         2        3        0        2
      3         0         0        5        2        3
      1         x         x        5        3        3
      x         x         x        3        x        1

Bb         Dm    D     Gm   X2

Bb         Dm    D     Gm
I close my eyes for a while
Bb                  Dm       D      Gm  
And force from the world a patient smile

Bb             Dm C  Bb
But I gave you aa-aa-all
               Dm C  Bb
But I gave you aa-aa-all
          Dm C
I gave you all

Bb                       F
And you rip it from my hands
         C               Dm
And you swear it's all gone
Bb                     F
And you rip out all I have
         C              Dm  C  Bb
Just to say that you've won
       Dm  C  Bb
You've won 

Bb               Dm  C
Well now you've won 

(very soft picking)
Bb              Dm  C  Bb
But I gave you all
           Dm C Bb
I gave you all
           Dm C
I gave you all


e|---5-----5---5---3---1-|----1---1---3-------0--|-----------------------|
B|------6----------------|-3--------------1-3----|-1---------------------|
G|-----------------------|-----------------------|-2---------------------|
D|-----------------------|-----------------------|-----------------------|
A|---5---------5---3---1-|--------1---3-----1-3--|-----------------------|
E|-----------------------|----------------1------|-1---------------------|

Wow! it took me forever to write it down! writing tabs is not as easy as it looks...
That's it!
beautiful song, I hope it's right :)
comments
print report bad tab
3 comments total.
0 reply
asafel wrote on March 6 2013, 11:27 am

thank you check my tabs as well

0 reply
BallSacZach wrote on May 30 2013, 04:50 pm

I don't understand how this has a lower rating than the most of the other tabs. As I play this to the song it is exactly the same. Thank you for posting this.

0 reply
frankblackops wrote on September 10 2013, 06:11 pm

Thanks for the great tab, man! I've been looking for an EADGBE version of this, and you nailed it. Fantastic work!

I want to post or [tab]
guest
You may want to rate the tab now too:
select rating
Please do not post tabs as comments. Select "correction" instead!