Oops, an error
Loading. Please wait.

I Gave You All Tab

version 4
version 4
25,031 views 21 this week
no commentswrite comment
1 2 3 4 5
accurate
x 4
add to favorites
launch autoscroll
font size
0
reset
how to read this tab
guitar tuner
Tab Pro tools
  • play this tab
  • loop segment
  • change instrument
  • show fretboard
  • metronome
×
Best way to learn
"I Gave You All"
Autoscroll
slow
fast
+/-
esc
set tempo
stop
Contributor
Difficulty
intermediate
-----------------------------------------------------
I GAVE YOU ALL - MUMFORD & SONS
-----------------------------------------------------
Tabbed by: Luke Priest
Email: luke.priest@hotmail.com

Tuning:DADFAD
Intro:
D|---------------------|---------------------|
A|---------------------|---------------------|
F|-5-------5--5-------5|-4-------4--4-------4|
D|-----0----------0----|-----0----------0----|
A|---------------------|---------------------|
D|-5-5---5----5-5---5--|-3-3---3----3-3---3--|

D|---------------------|-----------------------|
A|---------------------|-----------------------|
F|-2-------2--2-------2|-2p0-------0--0-------0|
D|-----0----------0----|-------0----------0----|
A|---------------------|-----------------------|
D|-2-2---2----2-2---2--|-0---0---0----0-0---0--|
X2
D|---------------------|
A|---------------------|
F|-0-------0--0-------0|
D|-----0----------0----|
A|---------------------|
D|-0-0---0----0-0---0--|


Verse:
D|---------------------|---------------------|
A|---------------------|---------------------|
F|-5-------5--5-------5|-4-------4--4-------4|
D|-----0----------0----|-----0----------0----|
A|---------------------|---------------------|
D|-5-5---5----5-5---5--|-3-3---3----3-3---3--|

D|---------------------|-----------------------|
A|---------------------|-----------------------|
F|-2-------2--2-------2|-2p0-------0--0-------0|
D|-----0----------0----|-------0----------0----|
A|---------------------|-----------------------|
D|-2-2---2----2-2---2--|-0---0---0----0-0---0--|
X2

D|---------------------|------------------------|
A|---------------------|------------------------|
F|-5-------5--5-------5|-4-------4--11--------11|
D|-----0----------0----|-----0-----------0------|
A|---------------------|------------------------|
D|-5-5---5----5-5---5--|-3-3---3----10-10---10--|

D|--------------------------|
A|--------------------------|
F|-12-------12--12--------12|
D|-------0------------0-----|
A|--------------------------|
D|-12-12---12----12-12--12--|

D|---------------------|---------------------|
A|---------------------|---------------------|
F|-5-------5--5-------5|-4-------4--4-------4|
D|-----0----------0----|-----0----------0----|
A|---------------------|---------------------|
D|-5-5---5----5-5---5--|-3-3---3----3-3---3--|

D|---------------------|---------------------|
A|---------------------|---------------------|
F|-2-------2--2-------2|-0-------0--0-------0|
D|-----0----------0----|-----0----------0----|
A|---------------------|---------------------|
D|-2-2---2----2-2---2--|-0-0---0----0-0---0--|

Bridge:
D|---------------------|---------------------|
A|-1-------1--1-------1|---------------------|
F|-----0----------0----|-0-------0--4-------0|
D|---------------------|-----0----------0----|
A|---------------------|---------------------|
D|-3-3---3----3-3---3--|-0-0---0----4-4---4--|

D|---------------------|---------------------|
A|---------------------|---------------------|
F|-5-------5--5-------5|-5-------5--5-------5|
D|-----0----------0----|-----0----------0----|
A|---------------------|---------------------|
D|-5-5---5----5-5---5--|-5-5---5----5-5---5--|
X2

Interlude:
D|------------------------|------------------|
A|------------------------|------------------|
F|-12---------12---12---11|-9------9---9--11-|
D|-------0----------------|----0-------------|
A|------------------------|------------------|
D|-12-12---12------12---10|-8-8--8-----8--10-|

D|-----------|-----------------------|
A|-----------|-----------------------|
F|-4---5---7-|-4-------4---4-------4-|
D|-----------|-----0-----------0-----|
A|-----------|-----------------------|
D|-3---5---7-|-3-3---3-----3-3---3---|
X2
D|-----------------------|
A|-----------------------|
F|-4-------4---4-------4-|
D|-----0-----------0-----|
A|-----------------------|
D|-3-3---3-----3-3---3---|

Verse:
D|---------------------|---------------------|
A|---------------------|---------------------|
F|-5-------5--5-------5|-4-------4--4-------4|
D|-----0----------0----|-----0----------0----|
A|---------------------|---------------------|
D|-5-5---5----5-5---5--|-3-3---3----3-3---3--|

D|---------------------|-----------------------|
A|---------------------|-----------------------|
F|-2-------2--2-------2|-2p0-------0--0-------0|
D|-----0----------0----|-------0----------0----|
A|---------------------|-----------------------|
D|-2-2---2----2-2---2--|-0---0---0----0-0---0--|
X2

D|---------------------|------------------------|
A|---------------------|------------------------|
F|-5-------5--5-------5|-4-------4--11--------11|
D|-----0----------0----|-----0-----------0------|
A|---------------------|------------------------|
D|-5-5---5----5-5---5--|-3-3---3----10-10---10--|

D|--------------------------|
A|--------------------------|
F|-12-------12--12--------12|
D|-------0------------0-----|
A|--------------------------|
D|-12-12---12----12-12--12--|

D|---------------------|---------------------|
A|---------------------|---------------------|
F|-5-------5--5-------5|-4-------4--4-------4|
D|-----0----------0----|-----0----------0----|
A|---------------------|---------------------|
D|-5-5---5----5-5---5--|-3-3---3----3-3---3--|

D|---------------------|---------------------|
A|---------------------|---------------------|
F|-2-------2--2-------2|-0-------0--0-------0|
D|-----0----------0----|-----0----------0----|
A|---------------------|---------------------|
D|-2-2---2----2-2---2--|-0-0---0----0-0---0--|

D|---------------------|
A|---------------------|
F|-0-------0--0-------0|
D|-----0----------0----|
A|---------------------|
D|-0-0---0----0-0---0--|

Chorus:
D|----------------|---------------|
A|----------------|---------------|
F|-9-------9--9--7|-12--------12--|
D|-----0----------|-------0-------|
A|----------------|---------------|
D|-8-8---8----8--7|-12-12---12----|

D|------------------------------|
A|------------------------------|
F|-11---------11---11---------11|
D|-------0---------------0------|
A|------------------------------|
D|-10-10---10------10-10---10---|
X3- on the 3rd time just keep playing the last position, fading out.

Bridge:
D|---------------------|---------------------|
A|-1-------1--1-------1|---------------------|
F|-----0----------0----|-0-------0--4-------0|
D|---------------------|-----0----------0----|
A|---------------------|---------------------|
D|-3-3---3----3-3---3--|-0-0---0----4-4---4--|

D|---------------------|---------------------|
A|---------------------|---------------------|
F|-5-------5--5-------5|-5-------5--5-------5|
D|-----0----------0----|-----0----------0----|
A|---------------------|---------------------|
D|-5-5---5----5-5---5--|-5-5---5----5-5---5--|
X4

Chorus:
D|----------------|---------------|
A|----------------|---------------|
F|-9-------9--9--7|-12--------12--|
D|-----0----------|-------0-------|
A|----------------|---------------|
D|-8-8---8----8--7|-12-12---12----|

D|------------------------------|
A|------------------------------|
F|-11---------11---11---------11|
D|-------0---------------0------|
A|------------------------------|
D|-10-10---10------10-10---10---|
X3- on the 3rd time just keep playing the last position, fading out.

D|---------------------|
A|-5----4--8---7---12--|
F|---------------------|
D|---------------------|
A|-5----3--9---7---12--|

D|--------------------00-00|*
A|-5----4--8---7---12------|
F|-------------------------|
D|-------------------------|
A|-5----3--9---7---12------|
X3 *this can be heard throughout the 2nd and 3rd time but I did not want to put in the 
wrong rhythm for it.

D|--------------------------------------------------|
A|--------------------------------------------------|
F|-12--------12--11---------11--9--------9--9------9|
D|-------0-------------0------------0-----------0---|
A|--------------------------------------------------|
D|-12-12---12----10-10---10-----8-8---8-----8-8---8-|
X2
D|-----------------------------|
A|-----------------------------|
F|-12--------12--11---------11-|
D|-------0-------------0-------|
A|-----------------------------|
D|-12-12---12----10-10---10----|
Repeat the last chord fading out like before.

Chorus: play very quietly, it’s not even necessary if you think it sounds better just vocals.
D|----------------|---------------|
A|----------------|---------------|
F|-9-------9--9--7|-12--------12--|
D|-----0----------|-------0-------|
A|----------------|---------------|
D|-8-8---8----8--7|-12-12---12----|

D|------------------------------|
A|------------------------------|
F|-11---------11---11---------11|
D|-------0---------------0------|
A|------------------------------|
D|-10-10---10------10-10---10---|

Interlude: Ending-very quite
D|------------------------|------------------|
A|------------------------|------------------|
F|-12---------12---12---11|-9------9---9--11-|
D|-------0----------------|----0-------------|
A|------------------------|------------------|
D|-12-12---12------12---10|-8-8--8-----8--10-|

D|-----------|--|
A|-----------|--|
F|-4---5---7-|-4|
D|-----------|-0|
A|-----------|--|
D|-3---5---7-|-3|

Ok this should be right, obviously in different versions Marcus adds in different bits 
for example at the end of a passage when there is just open strumming he adds in 
different strings:

D|--------------------0|
A|---------0----------0|
F|-0-------0--0-------0|
D|-----0----------0----|
A|---------------------|
D|-0-0---0----0-0---0--|

P.S. sorry about the 'barlines' and end lines they seemed to change position when i 
copied my tab from word to here.
Any questions email me :)
Thanks
Luke
comments
print report bad tab
I want to post or [tab]
guest
You may want to rate the tab now too:
select rating
Please do not post tabs as comments. Select "correction" instead!