Oops, an error
Loading. Please wait.

I Gave You All Tab

version 5
version 5
63,072 views 87 this week
9 commentsread comments
1 2 3 4 5
excellent!
x 49
add to favorites
launch autoscroll
font size
0
reset
how to read this tab
guitar tuner
Autoscroll
slow
fast
+/-
esc
set tempo
stop
Help us to improve Ultimate-Guitar.com Take our survey!
×
     E  S E  S E  E  S E  S E     E  S E  S E  E  S E  S E   
e|-----------------------------|----------------------------|
B|-----------------------------|----------------------------|
G|*--5---------5--5---------5--|--4---------4--4---------4--|
D|*-------0------------0-------|-------0------------0-------|
A|-----------------------------|----------------------------|
E|---5--5----5----5--5----5----|--3--3----3----3--3----3----|


    E  S E  S E  E  S E  S E     S  S S E  S E  E  S E  S E     
e|----------------------------|-------------------------------||
B|----------------------------|-------------------------------||
G|--2---------2--2---------2--|--2p-0--------0--0---------0--*||
D|-------0------------0-------|---------0------------0-------*||
A|----------------------------|-------------------------------||
E|--2--2----2----2--2----2----|--0----0----0----0--0----0-----||


    E  S E  S E  E  S E  S E       E  S E  S E  E  S E  S E   
e|----------------------------||-----------------------------|
B|----------------------------||-----------------------------|
G|--0---------0--0---------0--||*--5---------5--5---------5--|
D|-------0------------0-------||*-------0------------0-------|
A|----------------------------||-----------------------------|
E|--0--0----0----0--0----0----||---5--5----5----5--5----5----|


    E  S E  S E  E  S E  S E     E  S E  S E  E  S E  S E   
e|----------------------------|----------------------------|
B|----------------------------|----------------------------|
G|--4---------4--4---------4--|--2---------2--2---------2--|
D|-------0------------0-------|-------0------------0-------|
A|----------------------------|----------------------------|
E|--3--3----3----3--3----3----|--2--2----2----2--2----2----|


    S  S S E  S E  E  S E  S E       E  S E  S E  E  S E  S E   
e|-------------------------------||----------------------------|
B|-------------------------------||----------------------------|
G|--2p-0--------0--0---------0--*||--5---------5--5---------5--|
D|---------0------------0-------*||-------0------------0-------|
A|-------------------------------||----------------------------|
E|--0----0----0----0--0----0-----||--5--5----5----5--5----5----|


    E  S E  S E   E   S E   S  E      E   S E   S  E   E   S E   S  E   
e|--------------------------------|------------------------------------|
B|--------------------------------|------------------------------------|
G|--4---------4--11-----------11--|--12-----------12--12-----------12--|
D|-------0--------------0---------|---------0----------------0---------|
A|--------------------------------|------------------------------------|
E|--3--3----3----10--10----10-----|--12--12----12-----12--12----12-----|


    E  S E  S E  E  S E  S E     E  S E  S E  E  S E  S E   
e|----------------------------|----------------------------|
B|----------------------------|----------------------------|
G|--5---------5--5---------5--|--4---------4--4---------4--|
D|-------0------------0-------|-------0------------0-------|
A|----------------------------|----------------------------|
E|--5--5----5----5--5----5----|--3--3----3----3--3----3----|


    E  S E  S E  E  S E  S E     E  S E  S E  E  S E  S E   
e|----------------------------|----------------------------|
B|----------------------------|----------------------------|
G|--2---------2--2---------2--|--0---------0--0---------0--|
D|-------0------------0-------|-------0------------0-------|
A|----------------------------|----------------------------|
E|--2--2----2----2--2----2----|--0--0----0----0--0----0----|


    E  S E  S E  E  S E  S E       E  S E  S E  E  S E  S E   
e|------------0------------0--||-----------------------------|
B|--0------------0------------||---1---------1--1---------1--|
G|-------0------------0-------||*-------0------------0-------|
D|----------------------------||*----------------------------|
A|----------------------------||-----------------------------|
E|--0--0----0----0--0----0----||---3--3----3----3--3----3----|


    E  S E  S E  E  S E  S E     E  S E  S E  E  S E  S E   
e|----------------------------|----------------------------|
B|----------------------------|----------------------------|
G|--0---------0--4---------4--|--5---------5--5---------5--|
D|-------0------------0-------|-------0------------0-------|
A|----------------------------|----------------------------|
E|--0--0----0----4--0----0----|--5--5----5----5--5----5----|


    E  S E  S E  E  S E  S E       W                    E   S E   S  E   
e|-----------------------------||-------------------|-------------------|
B|-----------------------------||-------------------|--12-----------12--|
G|--5---------5--5---------5--*||--5----------------|---------0---------|
D|-------0------------0-------*||-------------------|-------------------|
A|-----------------------------||-------------------|-------------------|
E|--5--5----5----5--5----5-----||--5----------------|--12--12----12-----|


     Q     Q       E  S E  S E     Q    Q       Q    Q       Q    E  S S  
e|--------------|---------------|------------|------------|--------------|
B|--12----10----|--8---------8--|--8----5----|--3----5----|--7----3------|
G|--------------|-------0-------|------------|------------|------------0-|
D|--------------|---------------|------------|------------|--------------|
A|--------------|---------------|------------|------------|--------------|
E|--12----10----|--8--8----8----|--8----5----|--3----5----|--7----3--3---|


    S S E  E  S S    S S E   E   S S    S  S  E   Q        Q    E  S S  
e|----------------|------------------|-----------------|---------------|
B|------3--3------|------3--12-------|-------12--12----|--10----8------|
G|--L-----------0-|--L-------------0-|--L--------------|-------------0-|
D|----------------|------------------|-----------------|---------------|
A|----------------|------------------|-----------------|---------------|
E|----3----3--3---|----3----12--12---|----12-----12----|--10----8--8---|


    S S E  Q       Q    Q       Q    Q       E  S E  S E     E  S E  S E   
e|--------------|------------|------------|---------------|---------------|
B|------8--8----|--5----3----|--5----7----|--3---------3--|--3---------3--|
G|--L-----------|------------|------------|-------0-------|-------0-------|
D|--------------|------------|------------|---------------|---------------|
A|--------------|------------|------------|---------------|---------------|
E|----8----8----|--5----3----|--5----7----|--3--3----3----|--3--3----3----|


    E  S E  S E     E  S E  S E       E  S E  S E  E  S E  S E   
e|---------------|---------------||-----------------------------|
B|--3---------3--|--3---------3--||-----------------------------|
G|-------0-------|-------0-------||*--5---------5--5---------5--|
D|---------------|---------------||*-------0------------0-------|
A|---------------|---------------||-----------------------------|
E|--3--3----3----|--3--3----3----||---5--5----5----5--5----5----|


    E  S E  S E  E  S E  S E     E  S E  S E  E  S E  S E   
e|----------------------------|----------------------------|
B|----------------------------|----------------------------|
G|--4---------4--4---------4--|--2---------2--2---------2--|
D|-------0------------0-------|-------0------------0-------|
A|----------------------------|----------------------------|
E|--3--3----3----3--3----3----|--2--2----2----2--2----2----|


    S  S S E  S E  E  S E  S E       E  S E  S E  E  S E  S E   
e|-------------------------------||----------------------------|
B|-------------------------------||----------------------------|
G|--2p-0--------0--0---------0--*||--5---------5--5---------5--|
D|---------0------------0-------*||-------0------------0-------|
A|-------------------------------||----------------------------|
E|--0----0----0----0--0----0-----||--5--5----5----5--5----5----|


    E  S E  S E   E   S E   S  E      E   S E   S  E   E   S E   S  E   
e|--------------------------------|------------------------------------|
B|--------------------------------|------------------------------------|
G|--4---------4--11-----------11--|--12-----------12--12-----------12--|
D|-------0--------------0---------|---------0----------------0---------|
A|--------------------------------|------------------------------------|
E|--3--3----3----10--10----10-----|--12--12----12-----12--12----12-----|


    E  S E  S E  E  S E  S E     E  S E  S E  E  S E  S E   
e|----------------------------|----------------------------|
B|----------------------------|----------------------------|
G|--5---------5--5---------5--|--4---------4--4---------4--|
D|-------0------------0-------|-------0------------0-------|
A|----------------------------|----------------------------|
E|--5--5----5----5--5----5----|--3--3----3----3--3----3----|


    E  S E  S E  E  S E  S E     E  S E  S E  E  S E  S E   
e|----------------------------|----------------------------|
B|----------------------------|----------------------------|
G|--2---------2--2---------2--|--0---------0--0---------0--|
D|-------0------------0-------|-------0------------0-------|
A|----------------------------|----------------------------|
E|--2--2----2----2--2----2----|--0--0----0----0--0----0----|


    E  S E  S E  E  S E  S E       E  S E  S E     Q    Q        E   S E   S  E   
e|------------0------------0--||----------------|------------|-------------------|
B|--0------------0------------||----------------|------------|-------------------|
G|-------0------------0-------||*--9---------9--|--9----7----|--12-----------12--|
D|----------------------------||*-------0-------|------------|---------0---------|
A|----------------------------||----------------|------------|-------------------|
E|--0--0----0----0--0----0----||---8--8----8----|--8----7----|--12--12----12-----|


                                             ^                 
     E   S E   S  E      E   S E   S  E   3x   W                 
e|-------------------|--------------------||--------------------|
B|-------------------|--------------------||--------------------|
G|--11-----------11--|--11-----------11--*||--11----------------|
D|---------0---------|---------0---------*||---0----------------|
A|-------------------|--------------------||--------------------|
E|--10--10----10-----|--10--10----10------||--10----------------|


     E  S E  S E  E  S E  S E     E  S E  S E  E  S E  S E   
e|---0--0-0--0-0--0--0-0--0-0--|--0--0-0--0-0--0--0-0--0-0--|
B|---1--1-1--1-1--1--1-1--1-1--|--0--0-0--0-0--0--0-0--0-0--|
G|*--0--0-0--0-0--0--0-0--0-0--|--0--0-0--0-0--4--4-4--4-4--|
D|*--0--0-0--0-0--0--0-0--0-0--|--0--0-0--0-0--0--0-0--0-0--|
A|-----------------------------|----------------------------|
E|---3--3-3--3-3--3--3-3--3-3--|--0--0-0--0-0--4--4-4--4-4--|


    E  S E  S E  E  S E  S E     E  S E  S E  E  S E  S E   4x   E  S E  S E   
e|--0--0-0--0-0--0--0-0--0-0--|--0--0-0--0-0--0--0-0--0-0---||---0--0-0--0-0--|
B|--0--0-0--0-0--0--0-0--0-0--|--0--0-0--0-0--0--0-0--0-0---||---0--0-0--0-0--|
G|--5--5-5--5-5--5--5-5--5-5--|--5--5-5--5-5--5--5-5--5-5--*||*--9--9-9--9-9--|
D|--0--0-0--0-0--0--0-0--0-0--|--0--0-0--0-0--0--0-0--0-0--*||*--0--0-0--0-0--|
A|--0--0-0--0-0--0--0-0--0-0--|--0--0-0--0-0--0--0-0--0-0---||----------------|
E|--5--5-5--5-5--5--5-5--5-5--|--5--5-5--5-5--5--5-5--5-5---||---8--8-8--8-8--|


    E  S E  S E      E   S  E   S  E      E   S  E   S  E   
e|--0--0-0--0-0--|---0---0--0---0--0--|---0---0--0---0--0--|
B|--0--0-0--0-0--|---0---0--0---0--0--|---0---0--0---0--0--|
G|--9--9-7--7-7--|--12--12-12--12-12--|--11--11-11--11-11--|
D|--0--0-0--0-0--|---0---0--0---0--0--|---0---0--0---0--0--|
A|---------------|--------------------|--------------------|
E|--8--8-7--7-7--|--12--12-12--12-12--|--10--10-10--10-10--|


     E   S  E   S  E        E   S  E   S  E   E   S  E   S  E   
e|---0---0--0---0--0---||---0---0--0---0--0---0---0--0---0--0--|
B|---0---0--0---0--0---||---0---0--0---0--0---0---0--0---0--0--|
G|--11--11-11--11-11--*||--11--11-11--11-11--11--11-11--11-11--|
D|---0---0--0---0--0--*||---0---0--0---0--0---0---0--0---0--0--|
A|---------------------||--------------------------------------|
E|--10--10-10--10-10---||--10--10-10--10-10--10--10-10--10-10--|


    H.           Q       H         H            W                 
e|--0------------0----|--0---------0--------|---0----------------|
B|--0------------0----|--0---------0--------|---0----------------|
G|--5------------4----|--7--------11--------|--12----------------|
D|--0------------0----|--0---------0--------|---0----------------|
A|--------------------|---------------------|--------------------|
E|--5------------3----|--7--------10--------|--12----------------|


    H.           Q       H         H         
e|--0------------0----|--0---------0--------|
B|--0------------0----|--0---------0--------|
G|--5------------4----|--7--------11--------|
D|--0------------0----|--0---------0--------|
A|--------------------|---------------------|
E|--5------------3----|--7--------10--------|


     E   S  E   S  E   E   S  E   S  E       E  S E  S E  E  S E  S E   
e|---0---0--0---0--0---0---0--0---0--0--||---0--0-0--0-0--0--0-0--0-0--|
B|---0---0--0---0--0---0---0--0---0--0--||---0--0-0--0-0--0--0-0--0-0--|
G|--12--12-12--12-12--12--12-12--12-12--||*--5--5-5--5-5--5--5-4--4-4--|
D|---0---0--0---0--0---0---0--0---0--0--||*--0--0-0--0-0--0--0-0--0-0--|
A|--------------------------------------||-----------------------------|
E|--12--12-12--12-12--12--12-12--12-12--||---5--5-5--5-5--5--5-3--3-3--|


    E  S E  S E   E   S  E   S  E      E   S  E   S  E   E   S  E   S  E     
e|--0--0-0--0-0---0---0--0---0--0--|---0---0--0---0--0---0---0--0---0--0---||
B|--0--0-0--0-0---0---0--0---0--0--|---0---0--0---0--0---0---0--0---0--0---||
G|--7--7-7--7-7--11--11-11--11-11--|--12--12-12--12-12--12--12-12--12-12--*||
D|--0--0-0--0-0---0---0--0---0--0--|---0---0--0---0--0---0---0--0---0--0--*||
A|---------------------------------|---------------------------------------||
E|--7--7-7--7-7--10--10-10--10-10--|--12--12-12--12-12--12--12-12--12-12---||


     E   S  E   S  E   E   S  E   S  E     E  S E  S E  E  S E  S E   
e|---0---0--0---0--0---0---0--0---0--0--|--0--0-0--0-0--0--0-0--0-0--|
B|---0---0--0---0--0---0---0--0---0--0--|--0--0-0--0-0--0--0-0--0-0--|
G|--12--12-12--12-12--11--11-11--11-11--|--9--9-9--9-9--9--9-9--9-9--|
D|---0---0--0---0--0---0---0--0---0--0--|--0--0-0--0-0--0--0-0--0-0--|
A|--------------------------------------|----------------------------|
E|--12--12-12--12-12--10--10-10--10-10--|--8--8-8--8-8--8--8-8--8-8--|


     E   S  E   S  E   E   S  E   S  E     E  S E  S E  E  S E  S E   
e|---0---0--0---0--0---0---0--0---0--0--|--0--0-0--0-0--0--0-0--0-0--|
B|---0---0--0---0--0---0---0--0---0--0--|--0--0-0--0-0--0--0-0--0-0--|
G|--12--12-12--12-12--11--11-11--11-11--|--9--9-9--9-9--9--9-9--9-9--|
D|---0---0--0---0--0---0---0--0---0--0--|--0--0-0--0-0--0--0-0--0-0--|
A|--------------------------------------|----------------------------|
E|--12--12-12--12-12--10--10-10--10-10--|--8--8-8--8-8--8--8-8--8-8--|


     E   S  E   S  E   E   S  E   S  E      E   S  E   S  E   E   S  E   S  E   
e|---0---0--0---0--0---0---0--0---0--0--|---0---0--0---0--0---0---0--0---0--0--|
B|---0---0--0---0--0---0---0--0---0--0--|---0---0--0---0--0---0---0--0---0--0--|
G|--12--12-12--12-12--11--11-11--11-11--|--11--11-11--11-11--11--11-11--11-11--|
D|---0---0--0---0--0---0---0--0---0--0--|---0---0--0---0--0---0---0--0---0--0--|
A|--------------------------------------|--------------------------------------|
E|--12--12-12--12-12--10--10-10--10-10--|--10--10-10--10-10--10--10-10--10-10--|


                                                                ^          
     E   S  E   S  E   E   S  E   S  E     W                      H          
e|---0---0--0---0--0---0---0--0---0--0--|--0----------------||---(0)--------|
B|---0---0--0---0--0---0---0--0---0--0--|--0----------------||---(0)--------|
G|--11--11-11--11-11--11--11-11--11-11--|--5----------------||*--(9)--------|
D|---0---0--0---0--0---0---0--0---0--0--|--0----------------||*--(0)--------|
A|--------------------------------------|-------------------||--------------|
E|--10--10-10--10-10--10--10-10--10-10--|--5----------------||---(8)--------|


          ^          ^              ^                                     
    Q     Q          H              H             H         3x            
e|--L----(0)----|---(0)--------|---(0)--------|---L---------||-----------|
B|--L----(0)----|---(0)--------|---(0)--------|---L---------||-----------|
G|--L----(7)----|--(12)--------|--(11)--------|---L--------*||-----------|
D|--L----(0)----|---(0)--------|---(0)--------|---L--------*||-----------|
A|--------------|--------------|--------------|-------------||-----------|
E|--L----(7)----|--(12)--------|--(10)--------|---L---------||-----------|


     E   S E   S  E      Q     Q       E  S E  S E     Q    Q       Q    Q     
e|-------------------|--------------|---------------|------------|------------|
B|--12-----------12--|--12----10----|--8---------8--|--8----5----|--3----5----|
G|---------0---------|--------------|-------0-------|------------|------------|
D|-------------------|--------------|---------------|------------|------------|
A|-------------------|--------------|---------------|------------|------------|
E|--12--12----12-----|--12----10----|--8--8----8----|--8----5----|--3----5----|


               ^          
    Q    Q       H          
e|------------|--0--------||
B|--7----3----|--3--------||
G|------------|--0--------||
D|------------|--0--------||
A|------------|-----------||
E|--7----3----|--3--------||




Duration Legend
************************************

W - whole
H - half
Q - quarter
E - 8th
S - 16th
T - 32nd
X - 64th
. - note dotted
|-n-|  - n-tuplets

************************************
Suggest correction
comments
print report bad tab
9 comments total. Showing first comments. show 1 bad comment
+2 reply
McAvro 225 wrote on April 18 2012, 11:20 am

Great tab!

One minor correction, at the fingerpicking part at the 12th fret, like in the outro, instead of playing an open g string, it as also played at the 12th fret.

E S E S E
|-------------------|
|--12-----------12--|
|---------12--------|
|-------------------|
|-------------------|
|--12--12----12-----|

+3 reply
alex_gnarly 10 wrote on November 12 2012, 03:24 am

Open D minor tuning (:

guest
You may want to rate the tab now too:
select rating
Wanna post a correction for this tab? Suggest correction