Oops, an error
Loading. Please wait.

I Will Wait Bass Tab

version 1
version 1

Whole song

Interactive

28,813 views 51 this week
3 commentsread comments
1 2 3 4 5
excellent!
x 24
add to favorites
launch autoscroll
font size
0
reset
guitar tuner
Autoscroll
slow
fast
+/-
esc
set tempo
stop
Help us to improve Ultimate-Guitar.com Take our survey!
×
Difficulty
intermediate
Intro

G|------------------------------------|--------------------------------------------|
D|--------------------4-4-3-3-6-6-6-6-|--------------------4-4-3-3-6-6-6-6-6-6-6-6-|
A|-1-1-1-1-3-3-3-3-4-4----------------|-1-1-1-1-3-3-3-3-4-4------------------------|
E|------------------------------------|--------------------------------------------|

Verse 1

G|-------------------------|---------------------|
D|-------4-----------6-----|------4---------6----|
A|-4-----------4-----------|-4---------4---------|
E|-------------------------|---------------------|

Pre Chorus

G|--------------------------------------------|---------------------------------------------|
D|--------------------4-4-3-3-6-6-6-6-6-6-6-6-|--------------------4-4-3-3-6-6-6-6-6-6-6-6--|
A|-1-1-1-1-3-3-3-3-4-4------------------------|-1-1-1-1-3-3-3-3-4-4-------------------------|
E|--------------------------------------------|---------------------------------------------|

Chorus 1

G|---------------------|---------------------|
D|----------3----6-----|----------3----6-----|
A|-4-------------------|-4-------------------|
E|---------------------|---------------------|

Instrumental 1

G|-------------------|----------------|
D|-------------------|--------3-3-6-6-|
A|-4-4-4-4-4-4-4-4-4-|-4-4-6-6--------|
E|-------------------|----------------|

verse 2

G|--------------------------------------------------------------------|    X2
D|----------------4-4-4-4-4-4-4-4---------------6-6-6-6-6-6-6-6-------|    X2
A|-4-4-4-4-4-4-4-4---------------4-4-4-4-4-4-4-4----------------------|    X2
E|--------------------------------------------------------------------|    X2

Chorus 2

G|--------------------------------------|    X4
D|----------------3-3-3-3/6-6-6-6-------|    X4
A|-4-4-4-4-4-4-4-4----------------------|    X4
E|--------------------------------------|    X4

Verse 3

G|-------------------------|
D|-------4-----------6-----|
A|-4-----------4-----------|
E|-------------------------|

Verse 3 (Continued)

G|--------------------------------------------------------------|
D|----------------4-4-4-4-4-4-4-4---------------6-6-6-6-6-6-6-6-|
A|-4-4-4-4-4-4-4-4---------------4-4-4-4-4-4-4-4----------------|
E|--------------------------------------------------------------|

Pre Instrumental

G|------------------------------------|--------------------------------------------|
D|--------------------4-4-3-3-6-6-6-6-|--------------------4-4-3-3-6-6-6-6-6-6-6-6-|
A|-1-1-1-1-3-3-3-3-4-4----------------|-1-1-1-1-3-3-3-3-4-4------------------------|
E|------------------------------------|--------------------------------------------|

Instrumental 2

G|--------------------------------------------------|    X3
D|----------------------------4-4-3-3-6-6-6-6-------|    X3
A|-4-4-4-4-4-4-3-3-1-1-1-1-1-1----------------------|    X3
E|--------------------------------------------------|    X3

Instrumental 2 (Continued)

G|----------------------------------------------------|
D|----------------------------4-4-3-3-6-6-6-6-6-6-6-6-|
A|-4-4-4-4-4-4-3-3-1-1-1-1-1-1------------------------|
E|----------------------------------------------------|

Chorus 3


G|--------------------------------------|    X4
D|----------------3-3-3-3/6-6-6-6-------|    X4
A|-4-4-4-4-4-4-4-4----------------------|    X4
E|--------------------------------------|    X4

Outro

G|----------|
D|----------|
A|-4--------|
E|----------|

Hope It's Right, Enjoy! :D
Suggest correction new What's this?
You can suggest a correction to this tab. Community and Mods will review your correction and vote to approve or reject it.
comments
print report bad tab
3 comments total.
+1 reply
firebowl99 750 wrote on February 18 2013, 07:30 pm

Great tab man. If anybody is going to play along with the music video, play everything in this tab a half-step down or tune your bass that way.

0 reply
Suff2Say 16 wrote on June 25 2013, 10:50 am

Forgive my ignorance, I haven't tried playing this yet, on bass or guitar, but I'm just wondering, is this bass tab version to be played alongisde a guitar with standard or open C tuning?

0 reply
paginesparse 12 wrote on July 24 2013, 11:53 am

I am learning this for a wedding gig -- it's just about note-for-note as far as I can tell. Thanks for posting!

guest
You may want to rate the tab now too:
select rating
Please do not post tabs as comments. Select "correction" instead!