Oops, an error
Loading. Please wait.

I Will Wait Chords

version 10
version 10
56,738 views 78 this week
9 commentsread comments
1 2 3 4 5
excellent!
x 28
add to favorites
launch autoscroll
font size
0
reset
transpose
0
reset
display chords
guitar tuner
Autoscroll
slow
fast
+/-
esc
set tempo
stop
Help us to improve Ultimate-Guitar.com Take our survey!
×
Author
Tuning
Capo
C G C G C E
1st fret
Mumford and Sons – I Will Wait

tabbed by Jasper121

Tuning: C A C G C E
live: no capo
album recording: capo 1


[Intro/Bridge] 

(open strumming)

E|-0--0--0---0-----0---0---------------------|
C|-0--0--0---0-----0---0---------------------|
G|-2--0--0---0-----0---0---------------------|
C|-0--0--0---5-----4/--7---------------------| 
A|-0--2--3---0-----0---0---------------------|
C|----0--0---5-----4/--7---------------------|(x2)


[Verse 1]

(same muted strumming pattern as in little lion man)

    C       F      C       G
E|--0--------------0---------------------|
C|--0--------------0---------------------|
G|--0--------------0---------------------|
C|--0-------5------0-------7-------------|
A|--3-------x------3-------x-------------|
C|----------5--------------7-------------|

C
I came home
         F
Like a stone
             C             G
And I fell heavy into your arms

These days of dust
Which we've known
Will blow away with this new sun
   

[Pre-Chorus]

   A  B  C   F     E   G
E|-0--0--0---0-----0---0---------------------|
C|-0--0--0---0-----0---0---------------------|
G|-2--0--0---0-----0---0---------------------|
C|-0--0--0---5-----4/--7---------------------| 
A|-0--2--3---0-----0---0---------------------|
C|----0--0---5-----4/--7---------------------|(x2)

      A    B    C
And I'll kneel down
      F     E    G
Wait for now

And I'll kneel down
Know my ground
    

[Chorus]

     C        E       G 
E|---0--------0-------0-------------------|
C|---0--------0-------0-------------------|
G|---0--------0-------0-------------------|
C|---0--------4-------7-------------------|
A|---3--------0-------0-------------------|
C|---0--------4-------7-------------------|

 C                             E   G
I will wait, I will wait for you!
And I will wait, I will wait for you!


[Verse 2]

So break my step
And relent
You forgave and I won't forget

Know what we've seen
And him with less
Now in some way, shake the excess


[Chorus]

I will wait, I will wait for you!
And I will wait, I will wait for you!
I will wait, I will wait for you!
And I will wait, I will wait for you!


[Verse 3]

Now I'll be bold
As well as strong
Use my head alongside my heart
       
So take my flesh
And fix my eyes
That tethered mind free from the lies


[Pre-Chorus]

      A    B    C
And I'll kneel down
      F     E    G
Wait for now

And I'll kneel down
Know my ground


[Bridge]

   C  B    A   F     E   G 
E|-0--0----0---0-----0---0---------------------|
C|-0--0----0---0-----0---0---------------------|
G|-0--0----0---0-----0---0---------------------|
C|-0--11---9---5-----4/--7---------------------| 
A|-3--0----0---0-----0---0---------------------|
C|-0--11---9---5-----4/--7---------------------|(x4)

  C   B    A  
Raise my hands
 F       E    G
Paint my spirit gold
     C    B  A
And bow my head
 F     E     G
Keep my heart slow


[Chorus]

I will wait, I will wait for you!
And I will wait, I will wait for you!
I will wait, I will wait for you!
And I will wait, I will wait for you!
Suggest correction
What's this?
You can suggest a correction to this tab. Community and Mods will review your correction and vote to approve or reject it.
comments
print report bad tab
9 comments total. Showing first comments.
+2 reply
lespaul82 34 wrote on November 15 2012, 11:41 pm

EXCELLENT!!! Is there anyway to bump this one up to #1. If you want to learn the song correctly, this is the tab.

Watch the live videos, he does not play in open D tuning on this song.

http://www.youtube.com/watch?v=S5t7B-ia8Y0

Thanks!!!

0 reply
Jasper121 536 wrote on November 16 2012, 07:09 am

thank you,
I thought it was in CACGCE, cause they use it in some other songs as well.

0 reply
HimalayanHippie 11 wrote on March 9 2013, 08:05 pm

perfect, i agree with lespaul82...

guest
You may want to rate the tab now too:
select rating
Please do not post tabs as comments. Select "correction" instead!