Oops, an error
Loading. Please wait.

I Will Wait Chords

version 7
version 7
19,670 views 30 this week
4 commentsread comments
1 2 3 4 5
accurate
x 5
add to favorites
launch autoscroll
font size
0
reset
transpose
0
reset
simplify chords
display chords
guitar tuner
Autoscroll
slow
fast
+/-
esc
set tempo
stop
Help us to improve Ultimate-Guitar.com Take our survey!
×
Author
Difficulty
Tuning
novice
D A D F# A D
Please put in mind before posting that it's wrong that I won't sound exactly as the song 
since they got Keyboards and a Banjo aswell.
Playing Mumford and Sons song only on a guitar is not the way to play them. Have fun.

-------------------------------------------------------

Open D Tuning: DADF#AD

x - Muted string

Look at this chart for the chords

 B  B/D  Gb or Gb  G or G  A or A  D  C  B2
-0--0----0-----0---0----0--0----0--0--0--0---|
-2--4----0-----0---0----0--0----0--0--0--0---|
-0--3----0-----0---5----5--7----7--0--8--10--|
-0--0--- 4-----0---0----5--0----7--0--9--11--|
-2--0----X-----X---x----x--x----x--0--x--x---|
-0--X----4-----4---5----5--7----7--0--9--11--|

-----------------------------------------------------------

Intro/Bridge:

B B/D D G Gb A

-----------------------------------------------------------

Verse: Strumming pattern, Down Up Down Down x4 for each chord

D G D A

           D
And I came home
       G
Like a stone
           D            A
And I fell heavy into your arms
              D
These days of dust
            G
Which we've known
          D               A
Will blow away with this new sun

-----------------------------------------------------------

Bridge/Interlude or whatever, same as intro

B B/D D G Gb A     Strumming pattern, Down Down Down Up

    B    B/D   D
And I'll kneel down
G    Gb  A
Wait for now
    B    B/D   D
And I'll kneel down
G    Gb A
Know my ground

-----------------------------------------------------------

Chorus: Single Strums Down

D Gb A

    D                               Gb A
And I will wait, I will wait for you
    D                               Gb A
And I will wait, I will wait for you

-----------------------------------------------------------

Interlude

D     B2 C
Raise my hands
G        Gb     A
Paint my spirit gold
    D   B2 C
And bow my head
G       Gb    A
Keep my heart slow

-------------------------------------------------------------

That's it.
Suggest correction
What's this?
You can suggest a correction to this tab. Community and Mods will review your correction and vote to approve or reject it.
comments
print report bad tab
4 comments total. Showing first comments.
+1 reply
dec66 17 wrote on September 23 2012, 12:25 pm

I agree with most of it apart from:
I think F# should be:

And i think the intro is:

B F# D G D A

+1 reply
dec66 17 wrote on September 23 2012, 12:27 pm

Sorry it didnt show what i thought F# should be here it is:



-4-

0 reply
Feka 329 wrote on September 24 2012, 11:04 am

I don't agree with you :D
No but watch the live videos and you'll see he goes from 4th fret to 5th, back to 4th then 7th. So it's not D G D A, it's
F# G F# A.
And about the B and F#, it's not like that. He does a chord on the third fret at those chords but I can't figure it out.
However play what sounds best to you. :)

guest
You may want to rate the tab now too:
select rating
Please do not post tabs as comments. Select "correction" instead!