Oops, an error
Loading. Please wait.

Little Lion Man Bass Tab

version 1
version 1

Whole song

Interactive

15,372 views 3 this week
no commentswrite comment
1 2 3 4 5
1 last vote to show rating
add to favorites
launch autoscroll
font size
0
reset
guitar tuner
Autoscroll
slow
fast
+/-
esc
set tempo
stop
Help us to improve Ultimate-Guitar.com Take our survey!
×
ok, this song is played on a double bass
tuned to drop D or a four string in drop D.
But i'm gonna tab this for a five string in
standard tuning(B-E-A-D-G).

Wait 8 measures

----------------------------------------------|
------------55-7-5-2-3---------55-7-5-2-3-----|
-----------------------3-----5------------3---|
-------------------------1~-----------------1-|
---3~-----------------------------------------|

----------------------------------------------------------|
-------2-3-----------2-3---------------------------3~-----|
---5-5-----3-----5-5-----3----3--1--0-----3--1--0---------|
-------------1-------------1-----------1------------------|
----------------------------------------------------------|

---------------------------------5~----------------------------------|
---------------------------------------------------55-7-5-2-33-------|
---5---3-----5---3-----5---3-----3~---5-5-5-5-5-5--------------33----|
----------1---------1---------1-----------------------------------11-|
---------------------------------------------------------------------|

----------7---------------------|
--------------55-7-5-2-33-------|
--5-5-5-5---5-------------33----|
-----------------------------11-|
--------------------------------|

----------------------------------------------------------------|
-------2--3-----------2--3--------------------------------------|
---5--5-----3-----5--5-----3----3--3--1--1--0-----3--3--1--1--0-|
--------------1--------------1----------------1-----------------|
----------------------------------------------------------------|

------------------------------------------------------------|
------------------------------------------------------------|
---------------55553333-----55553333-----55553333------3333-|
-1--1-1-1-1-1----------1111---------1111---------1111-------|
------------------------------------------------------------|

---------------------------------------------------|
---------------------------------------------------|
--55553333-----55553333-----55553333------33333333-|
----------1111---------1111---------1111-----------|
---------------------------------------------------|

----------------------------------------------|
------------55-7-5-2-3---------55-7-5-2-3-----|
-----------------------3-----5------------3---|
-------------------------1~-----------------1-|
---3~-----------------------------------------|

-----------------------------------------------------------------------|
--3-3-3-3-3-3-3-3-3-3-3-3-3-3-3-3-3-3-3-3-3-3-3-3-3-3-3-3-3-3-3-3-3-3--|
---3-3-3-3-3-3-3-3-3-3-3-3-3-3-3-3-3-3-3-3-3-3-3-3-3-3-3-3-3-3-3-3-3-3-|
-----------------------------------------------------------------------|
-----------------------------------------------------------------------|

------------------3-3-3-3-5-----------------3-3-3-3-5-|
----------3-3-3-3-------------------3-3-3-3-----------|
--3-3-3-3-------------------3-3-3-3-------------------|
------------------------------------------------------|
------------------------------------------------------|

------------------3-3-3-3-5-----------------3-3-3-3-5-|
----------3-3-3-3-------------------3-3-3-3-----------|
--3-3-3-3-------------------3-3-3-3-------------------|
------------------------------------------------------|
------------------------------------------------------|

------------------------------------------------------|
---------3-3-3-3------------------3-3-3-3-------------|
-3-3-3-3---------1-1-1-1--3-3-3-3---------1-1-1-1-3*--|
------------------------------------------------------|
------------------------------------------------------|

-------------------------------------------------------|
-------------------------------------------------------|
-3333-55553333-----55553333-----55553333------33333333-|
--------------1111---------1111---------1111-----------|
-------------------------------------------------------|

wait 6 measures

----------|
-3~-------|
----------|
-1~-------|
----------|
Suggest correction
Give kudos to tab author, rate the tab!
1 2 3 4 5
comments
print report bad tab
guest
You may want to rate the tab now too:
select rating
Wanna post a correction for this tab? Suggest correction