Oops, an error
Loading. Please wait.

Little Lion Man Bass Tab

version 3
version 3

Whole song

Interactive

15,584 views 15 this week
1 commentread comment
1 2 3 4 5
x 14
add to favorites
launch autoscroll
font size
0
reset
guitar tuner
Autoscroll
slow
fast
+/-
esc
set tempo
stop
Help us to improve Ultimate-Guitar.com Take our survey!
×
Author
Difficulty
-------------------------------------------------------------------------------
			     LITTLE LION MAN - Mumford and Sons
-------------------------------------------------------------------------------

Tabbed By : Satsuma4Every1
e-mail: 

Tuning: Standard

Intro (0:14)
G|------------------------------------------------------------------|
D|---------55h7-5--3~-----------------------55h7-5--3~--------------|
A|--5~--------------------3~----------5~-------------------3~-------|
E|------------------------------1~-------------------------------1~-|

Verse 1 (0.28)
G|------------------------------------------------------------------|
D|---------2--3~----------------------------2--3~-------------------|
A|--5~------------3--------------5~--5~------------3----------------|
E|--------------------1~-------------------------------1~-----------|

(0.42)
G|------------------------------------------------------------------|
D|------------------------------------------------------------------|
A|--3~-----1~-------------------3~-----1~---------------------------|
E|--------------5--3--1~--------------------5--3--1~----------------|

Chorus (0.56)
G|------------------------------------------------------------------|
D|------------------------------------------------------------------|
A|--5~--------1~-----------------5~--------1~-----------------------|
E|---------------------1~----------------------------1~-------------|

G|------------------------------------------------------------------|
D|------------------------------------------------------------------|
A|--5~--------1~------------------3-3-3-3-3-------------------------|
E|----------------------1~------------------------------------------|

Bridge (1.10)
G|------------------------------------------------------------------|
D|---------55h7-5--3~-----------------------55h7-5--3~--------------|
A|--5~--------------------3~----------5~-------------------3~-------|
E|------------------------------1~-------------------------------1~-|

Verse 2 (1.24)
G|------------------------------------------------------------------|
D|------------2--3~-----------------------------0--2--3~------------|
A|--5~--5~-------------3--------------5~--5~---------------3--------|
E|--------------------------1~----------------------------------1~--|

(1.37)
G|------------------------------------------------------------------|
D|------------------------------------------------------------------|
A|--3~-----1~-------------------3~-----1~---------------------------|
E|--------------5--3--1~--------------------5--3--1~--1~--1-1-1-1---|

Chorus 2 (1.51)
G|------------------------------------------------------------------|
D|------------------------------------------------------------------|
A|--5-5--1-1------------5-5--1-1------------------------------------|
E|------------1-1-1-1-------------1-1-1-1---------------------------|

G|------------------------------------------------------------------|
D|------------------------------------------------------------------|
A|--5-5--1-1------------3-3-3-3-3-3-3-3-----------------------------|
E|------------1-1-1-1-----------------------------------------------|

G|------------------------------------------------------------------|
D|------------------------------------------------------------------|
A|--5-5--1-1------------5-5--1-1------------------------------------|
E|------------1-1-1-1-------------1-1-1-1---------------------------|

G|------------------------------------------------------------------|
D|------------------------------------------------------------------|
A|--5-5--1-1------------3-3-3-3-3-3-3-3-----------------------------|
E|------------1-1-1-1-----------------------------------------------|

(2.19)
G|------------------------------------------------------------------|
D|---------55h7-5--3~-----------------------55h7-5--3~--------------|
A|--5~--------------------3~----------5~-------------------3~-------|
E|------------------------------1~-------------------------------1~-|

Bridge 2 (2.33)(x4)
G|-----------------------------------------------------------------|
D|--3---3---3---3---3---3---3---3---3---3---3---3---3---3---3---3--|
A|----3---3---3---3---3---3---3---3---3---3---3---3---3---3---3----|
E|-----------------------------------------------------------------|

(2.46) (x5)
G|------------------------------------|
D|----------3-3-3-3---------------0---|
A|--3-3-3-3---------1-1-1-1-1-1-1-----|
E|------------------------------------|

G|----------------------------------|
D|----------3-3-3-3-----------------|
A|--3-3-3-3---------1-1-1-1-1-1-1---|
E|----------------------------------|

Chorus 3 (3.28)
G|------------------------------------------------------------------|
D|------------------------------------------------------------------|
A|--5------------------------5-5--1-1-------------------------------|
E|---------------1-1-1-1----------------1-1-1-1---------------------|

G|------------------------------------------------------------------|
D|------------------------------------------------------------------|
A|--5-5--1-1------------3-3-3-3-3-3-3-3-5---------------------------|
E|------------1-1-1-1----------------------------------1------------|

Think this is okay, though he plays a double bass so it won't sound identical







| /  slide up
| \  slide down
| h  hammer-on
| p  pull-off
| ~  vibrato
| +  harmonic
| x  Mute note
===============================================================================
Suggest correction
comments
print report bad tab
1 comment total.
0 reply
crazyfoolguy 10 Jun 04, 2011 02:39 PM

Great job! This is my favorite tab for this song.

guest
You may want to rate the tab now too:
select rating
Wanna post a correction for this tab? Suggest correction