Oops, an error
Loading. Please wait.

Little Lion Man Bass Tab

version 4
version 4

Whole song

Interactive

1,203 views 1 this week
no commentswrite comment
1 2 3 4 5
please rate
add to favorites
launch autoscroll
font size
0
reset
guitar tuner
Autoscroll
slow
fast
+/-
esc
set tempo
stop
Help us to improve Ultimate-Guitar.com Take our survey!
×
Author
-------------------------------------------------------------------------------
                           Little Lion Man - Mumford and Sons
-------------------------------------------------------------------------------

Tabbed By : MountApple
e-mail: titanicant@gmail.com

 
Tuning: Standard

 0:14
G|------------------------------------------------------------------|
D|---------557-5----------------------------55-7-5------------------|
A|--5-------------8-8-----------------5-------------8-8-------------|
E|---------------------8--1------------------------------8--1-------|

 0:28
G|------------------------------------------------------------------|
D|------------------------------------------------------------------|
A|--5--------7-8----3-------------5-----5----7-8----3---------------|
E|---------------------1--------------------------------1-----------|

 0:42
G|------------------------------------------------------------------|
D|------------------------------------------------------------------|
A|--3------1--------------------3------1----------------------------|
E|--------------5--3--1---------------------5--3--1-----------------|

 0:55
G|------------------------------------------------------------------|
D|------------------------------------------------------------------|
A|-5--------------------5-------------------5--------------3-3-3-3-3|
E|------6-----1--------------6-----1-------------6----1-------------|

 1:09                              1:16
G|------------------------------------------------------------------|
D|---------557-5----------------------------55-7-5------------------|
A|--5---5---------8-8-----------------5-------------8-8-------------|
E|---------------------8--1------------------------------8--1-------|

 
This is what he plays live but I don't hear it in the studio recording                  
                                   1:16  ---------------------------|
                                         --12--10-------------------|
                                         ----------13-12-10---------|
                                         -------------------13-12-13|

                                         ---------------------------|
                                         ---------------------------|
                                         ---------------------------|
                                         ---8--------1--------------|



 1:24
G|------------------------------------------------------------------|
D|------------------------------------------------------------------|
A|--5----5--7-8----3-------------5-----5----7-8----3----------------|
E|--------------------1--------------------------------1------------|

 1:37
G|------------------------------------------------------------------|
D|------------------------------------------------------------------|
A|--3------1--------------------3------1----------------------------|
E|--------------5--3--1---------------------5--3--1----1----1-1-1-1-|

 1:50
G|------------------------------------------------------------------|
D|------------------------------------------------------------------|
A|--5-5-3-3---------5-5-3-3---------5-5-1-1---------3-3-3-3-3-3-3-3-|
E|----------1-1-1-1---------1-1-1-1---------1-1-1-1-----------------|

G|------------------------------------------------------------------|
D|------------------------------------------------------------------|
A|--5-5-3-3---------5-5-3-3---------5-5-1-1---------3-3-3-3-3-3-3-3-|
E|----------1-1-1-1---------1-1-1-1---------1-1-1-1-----------------|
 
 2:18
G|------------------------------------------------------------------|
D|---------557-5----------------------------55-7-5------------------|
A|--5-------------8-8-----------------5-------------8-8-------------|
E|---------------------8--1------------------------------8--1---1---|

 2:31 4x
G|---------------------------------|
D|---------------------------------|
A|--8---8---8---8---8---8---8---8--|
E|----8---8---8---8---8---8---8---8|

 2:46 
G|------------------------------------|
D|------------------8-8-8-8-8-8-8-----|
A|----------8-8-8-8---------------8---|
E|--8-8-8-8---------------------------|

G|------------------------------------|
D|------------------8-8-8-8-8-8-8-----|
A|----------8-8-8-8---------------8---|
E|--8-8-8-8---------------------------|

G|------------------------------------|
D|------------------8-8-8-8-8-8-8-10--|
A|----------8-8-8-8-------------------|
E|--8-8-8-8---------------------------|

G|------------------------------------|
D|------------------------------------|
A|----------8-8-8-8-------------------|
E|--8-8-8-8---------6-6-6-6-6-6-6-7---|

G|------------------------------------|
D|------------------------------------|
A|----------8-8-8-8---------------8---|
E|--8-8-8-8---------6-6-6-6-6-6-6-----|

G|------------------------------------------------------------------|
D|------------------------------------------------------------------|
A|----------8-8-8-8-------------------------------------------------|
E|--8-8-8-8---------6-6-6-6-6-6-6-6-------1-------------------------|

 3:29                                                           3:50
G|------------------------------------------------------------------|
D|------------------------------------------------------------------|
A|--5-5-3-3---------5-5-1-1---------3-3-3-3-3-3-3-3-5---------------|
E|----------1-1-1-1---------1-1-1-1-------------------------------0-|




| /  slide up
| \  slide down
| h  hammer-on
| p  pull-off
| ~  vibrato
| +  harmonic
| x  Mute note
===============================================================================
Suggest correction
Give kudos to tab author, rate the tab!
1 2 3 4 5
comments
print report bad tab
guest
You may want to rate the tab now too:
select rating
Please do not post tabs as comments. Select "correction" instead!