Oops, an error
Loading. Please wait.

Lover Of The Light Chords

version 8
version 8
4,726 views 21 this week
1 commentread comment
1 2 3 4 5
x 7
add to favorites
launch autoscroll
font size
0
reset
transpose
0
reset
simplify chords
display chords
guitar tuner
Autoscroll
slow
fast
+/-
esc
set tempo
stop
Help us to improve Ultimate-Guitar.com Take our survey!
×
Author
Difficulty
Tuning
intermediate
D A D F# A D
LOVER OF THE LIGHT - MUMFORD & SONS
TUNING: D-A-D-F#-A-D
NO CAPO

Intro:

"And in the middle of the night I may watch you go"
d |---------0-------------------------0------------|
A |---------0-------------------------0------------|
F#|---------7--(let ring--------------0------------|
D |---------0---every chord)----------0------------|
A |---------x-------------------------0------------|
D |---------7-------------------------0------------|

"There'll be no value in the strength of walls that I have grown"
d |-------------0------------------------------------------0-----|
A |-------------0------------------------------------------0-----|
F#|-------------7------------------------------------------0-----|
D |-------------0------------------------------------------0-----|
A |-------------x------------------------------------------0-----|
D |-------------7------------------------------------------0-----|

"There'll be no confort in the shade of the shadows thrown"
d |-------------0--------------0------------0--0----0---------|
A |-------------0--------------0------------0--0----0---------|
F#|-------------5--------------8------------8--7----5---------|
D |-------------0--------------0------------0--0----0---------|
A |-------------x--------------x------------x--x----x---------|
D |-------------5--------------9------------9--7----5-------5-|

"But I'd be yours if you'd be mine"
d |-----0--0--------------0--0----|
A |-----0--0--------------0--0----|
F#|-----1--3--------------1--0----|
D |-----0--0--------------0--0----|
A |-----x--x--------------x--0----|
D |-----2--4--------------2--0----|

Now the strumming starts, listen to the song for it
CHORDS:
D   [000000]
A   [7x0700]
G   [5x0500]
Bm  [9x0800]
D/F#[4x0300]
A2  [2x0100] (I don't know the name of this chord, so I'll call it A2]

Verse 1:

D                         G        D
  Stretch out my life and pick the seams out
                          G       A         Bm
  Take what you like but close my years and eyes
  G         D     A2 D/F#   A2 D
  Watch me stumble o-ver and o-ver
D                        G          D
  I have done wrong, you build your tower
                       G      A       Bm
  But call me home and I will build a throne
      G       D       A2 D/F# A2 D
  And wash my eyes out never   a-gain


Chorus 1:

D                      G
  But love the one you hold
                   A
  And I'll be your goal
                 Bm
  To have and to hold
                D
  A lover of the light

Verse 2 (From "With skin too tight..." to "breathe in and breathe out") is the same of 
the 1st.

Chorus 2 is always the same

Bridge is like the intro, but there's a new line between "Of the shadows thrown" and 
"But I'd be yours if you'd be mine":

               G             Bm          Bm    A     G
  You may not trust the promises of the change I'll shown


Banjo Solo:  D Bm D G A Bm D G A Bm D

Chorus 3/Chorus 4: like the others
Suggest correction
comments
print report bad tab
1 comment total.
0 reply
ilborcio1234 10 Nov 23, 2013 05:53 PM

i m astonished! i don t wanna say the other tabs aren t well made, but this...this in the best version ever

guest
You may want to rate the tab now too:
select rating
Wanna post a correction for this tab? Suggest correction