Oops, an error
Loading. Please wait.

Lovers Eyes Bass Tab

version 1
version 1

Whole song

2,771 views 3 this week
no commentswrite comment
1 2 3 4 5
x 3
add to favorites
launch autoscroll
font size
0
reset
guitar tuner
Autoscroll
slow
fast
+/-
esc
set tempo
stop
Help us to improve Ultimate-Guitar.com Take our survey!
×
Author
Probably isn't exact, but sounds good along with the song.

Intro/Verses:
G-------------------0-----0h2--2--2--0---------------------------------------|
D--2--0--2h4--4--4-----4----------------4--2--2--2h4--4p2--2h0--0------------|
A----------------------------------------------------------------------------|
E----------------------------------------------------------------------------|

Chorus:
G---0--------------------------------------0---------------------------------|
D------------4---------2--------4----------------------4---------2---------4-|
A----------------------------------------------------------------------------|
E----------------------------------------------------------------------------|
...ask   ...pay   ...live   ...rage   ...ghosts   ...head   ...wild   ...dead

G----0----------------------------------------0-------------------------------|
D-------------4----------2----------4-----------------4-------2----------0----|
A-----------------------------------------------------------------------------|
E-----------------------------------------------------------------------------|
...ash   ...wind   ...forgive   ...sins   ...die   ...lie  ...curse   ...eyes

Bridge:
G----------------------------------------------------------------------------|
D-0--4---4-----2-0--0---4---4-----5-4---4---4---2-----0--2--4--5--4--0-------|
A----------------------------------------------------------------------------|
E----------------------------------------------------------------------------|
  I walk slooooooow I walk slooooooow  Take my hand, help me on my way

G-------------------0--------2----0---------------------------------------|
D--2----0----4-----------4-------------4----2-----2-----2h4--4p2--2p0--0--|
A-------------------------------------------------------------------------|
E-------------------------------------------------------------------------| 
  Haaa-ahhh-ahhh  Haaa-ahhh-ahhh Haaa-ahhh-ahhh-ahhh-ahhh-ahhh-ahhh-ahhhhh
Suggest correction
Give kudos to tab author, rate the tab!
1 2 3 4 5
comments
print report bad tab
guest
You may want to rate the tab now too:
select rating
Wanna post a correction for this tab? Suggest correction