Oops, an error
Loading. Please wait.

Lovers Eyes Tab

version 3
version 3

Whole song

971 views 6 this week
1 commentread comment
1 2 3 4 5
worth learning
x 3
add to favorites
launch autoscroll
font size
0
reset
how to read this tab
guitar tuner
Autoscroll
slow
fast
+/-
esc
set tempo
stop
Help us to improve Ultimate-Guitar.com Take our survey!
×
Author
Difficulty
C Shape

E|-------------------------------------------------------|
B|-3---1-------------------------------------------------|
G|-------------------------------------------------------|
D|--------0h2---3---2--------3--2---0--h2p0----0---------|
A|---------------------0-----------------------------3---|
E|-------------------------------------------------------|
Suggest correction
Give kudos to tab author, rate the tab!
1 2 3 4 5
comments
print report bad tab
1 comment total.
0 reply
elijah rockman 37 wrote on August 1 2013, 12:14 pm

E|-------------------------------------------------------|
B|-3---1-------------------------------------------------|
G|----------------------0--------------------------------|
D|--------0h2---3---2--------3--2---0--h2p0----0---------|
A|---------------------------------------------------3---|
E|-------------------------------------------------------|

Capo 2

guest
You may want to rate the tab now too:
select rating
Please do not post tabs as comments. Select "correction" instead!