Oops, an error
Loading. Please wait.

Roll Away Your Stone Bass Tab

version 1
version 1

Whole song

Interactive

5,080 views 1 this week
4 commentsread comments
1 2 3 4 5
x 7
add to favorites
launch autoscroll
font size
0
reset
guitar tuner
Autoscroll
slow
fast
+/-
esc
set tempo
stop
Help us to improve Ultimate-Guitar.com Take our survey!
×
Author
Difficulty
novice
Tuning - Standard

Intro 0:00-0:24

G---------------------------|
D-------44---6-7-----99-----|
A-7(x6)----7------777---7---|
E---------------------------|

(For this part just pay attention to the timing of the open notes)
G-----------|
D-----------|
A-----------|
E-0~-----0~-|

Verse 0:25-0:49
~REST~

Pre-Verse 0:50-1:00

*There is 8 of the E,B combo
G---------------------|
D---------------------|
A-7-7-7-7-7-7-7-7-----|
E--7-7-7-7-7-7-7-7-0~-|

Verse 2 1:01-1:28

G-------------------------------------|
D-------------2~--2-2----------2(x6)--|
A---0~------0~-------0~---0~-2~-------|
E-0~--0~--0~-----------0~-------------|

Chorus 1:29-1:45

G---------------------|
D---------------------|
A--4(x4)--------------|  (x2)
E-------44-5-2-0(x8)--|

G------------|
D------------|
A-7-7-7-7----|
E--7-7-7-7---|

Verse 3 1:46-2:13

G-------------------------------------------|
D-------------2~--2-2-----------2(x2)4-6-4--|
A---0~------0~-------0~---0~-2~-----------4-|
E-0~--0~--0~-----------0~-------------------|

Chorus 2:14-2:44

G---------------------|
D----------6-4--------|
A--4(x4)--------------|  (x4)
E-------44-----0(x8)--|

G------------|
D------------|
A-7-7-7-7~---|
E--7-7-7-----|

PreBridge 2:45-3:02
~REST~

Bridge 3:03-3:59

G----------------------------------------|
D----------------------------------------|
A-7~-12-14---12-14--7~-12-14--9-9-----6~-|  (x4)
E----------0~------------------7-77-99---|

G-------------------------------------------------------|
D-------------------------------------------------------|
A-7~-12-14---12-14--7~-12-14--9--9--9--9--9-------------|
E----------0~------------------77-77-77-77-77-99-11-12--|

Closing 4:00-4:24
~REST~
Suggest correction
comments
print report bad tab
4 comments total. Showing first comments.
0 reply
KGuitarMan94 47 Nov 23, 2013 12:00 PM

Looks and sounds 100% right to me! I wonder why you got rated down, jealousy maybe.

0 reply
CoheedFan28 469 Nov 23, 2013 09:28 PM

Thanks for your rate sir! Yeah i think the intro portion may be confusing to some and so they stop playing there and give a poor rating.

0 reply
KGuitarMan94 47 Nov 24, 2013 10:54 AM

I used this at a gig last night, everyone thought it sounded great.

guest
You may want to rate the tab now too:
select rating
Wanna post a correction for this tab? Suggest correction