Oops, an error
Loading. Please wait.

Roll Away Your Stone tab

version 1
version 1

Whole song

Interactive

150,676 views 24 this week
14 commentsread comments
1 2 3 4 5
x 9
add to favorites
×
Save as Personal and add changes to this tab that will be seen only by you. Learn more ›
×
You can save this tab as Personal to edit and correct it or add notes. All changes will be seen only by you. Learn more »
launch autoscroll
font size
0
reset
how to read this tab
guitar tuner
edit
Autoscroll
slow
fast
+/-
esc
set tempo
stop
Capo on 2nd fret.

Tuning(low to high) : D A D F# A E

Chords used: (not sure about their names)

E - 000xxx
A - 555xxx
B - 777xxx
C# - x245xxx or 999xxx
E2 - 121212xxx

Intro
E ||--0h2p0------2p3--3p2p0--0h2p0--------0--0-------|
A ||---------0----------------------0h2h5------------|
F#||-------------------------------------------------|
D ||-------------------------------------------------|
A ||--------------------------------------0--0-------|
D ||--0------0---0----0------0------0----------------|
                                                     |
E ||--0h2p0------2/3--3\2p0--0h2p0---------0---------|
A ||---------0----------------------0h2h5-----5--5---|
F#||-------------------------------------------------|
D ||-------------------------------------------------|
A ||---------------------------------------0---------|
D ||--0------0---0----0------0------0---------0--0---|x2


E ||-------------------------------------------------|
A ||---5-~~------------------------------------------|
F#||---0-~~------------------------------------------|
D ||---0-~~------------------------------------------|
A ||---0-~~------------------------------------------|
D ||---0-~~------------------------------------------|

Figure 1
E ||-------------------------------------------------|
A ||-------------------------------------------------|
F#||-------------------------------------------------|
D ||---0h2p0-----0-----------------------------------|
A ||---------0h2-------------------------------------|
D ||-------------------------------------------------|

Verse 1
E              A                      E     Figure 1
Roll away your stone I will roll away mine

E               A                E    Figure 1
Together we can see what we will find

E              A             E      Figure 1
Don't leave me alone at this time

B                  A                    E
For I am afraid of what I will discover inside

E between verse

Verse 2 (same as #1)
You told me that I wouldn't find a home
Beneath the fragile substance of my soul
And I have filled this void with things unreal
And all the while my character it steals


Chorus
C#            A                    E    Figure 1
Darkness is a harsh term don't you think

C#                   A        E
Yet it dominates the things I see


Verse 3
It seems that all my bridges have been burned
But you say 'That's exactly how this grace thing works
It's not the long walk home that will change this heart
But the welcome I receive with every start

Chorus (same)
Darkness is a harsh term don't you think
And yet it dominates the things I see
Darkness is a harsh term don't you think
And yet it dominates the things I see

E
E2 B  E  Figure 1
E
E2 B  E  Figure 1

Some palm muting and then let E ring

E     A    B    E
Stars hide your fires

E   A          B      E
For these here are my desires

    A                 B
And I won't give them up to you this time around

    E  A B       E
And so I will be found

E    A        B            E
With my stake stuck in the ground 

A                     B
Marking the territory of this newly impassioned soul

E A B 4x

    E           A        B        E
And you, you've gone too far this time

    A            B          E
You have neither reason nor rhyme

     A        B         E                          E let ring
With which to take this soul that is so rightfully mine

Please post corrections in the comments.

            
            
Suggest correction
Creating personal tab
Creating personal tab
You can edit any tab online and save it as your Personal.

You can edit, replace or remove any tab part or add personal notes – all changes will be seen only by you.

Personal tabs can be accessed anytime from any device, even offline.
Learn more »
comments
print report bad tab
14 comments total. Showing first comments.
+1 reply
freezedryfun 83 Oct 15, 2009 01:59 PM

If you want album version, no capo and Intro should be-

Intro
E ||--0h2p4------4p5--4p2p0--0h2p4--------0--0-------|
A ||---------0----------------------0-4h5------------|
F#||-------------------------------------------------|
D ||-------------------------------------------------|
A ||--------------------------------------0--0-------|
D ||--0------0---0----0------0------0----------------|
|
E ||--0h2p4------4/5--4\2p0--0h2p4---------0---------|
A ||---------0----------------------0-4h5-----5--5---|
F#||-------------------------------------------------|
D ||-------------------------------------------------|
A ||---------------------------------------0---------|
D ||--0------0---0----0------0------0---------0--0---|x2

0 reply
goodintheory 10 Dec 14, 2009 01:41 PM

thanks so much for this!

0 reply
koolasfolk 31 Dec 30, 2009 11:51 AM

This is the correct version of the introduction on the album, also i've altered the final end from a repeat to incorperate the rall and the chord at the end of the introduction.

Intro
E ||--0h2p4------4p5--4p2p0--0h2p4-------0-1-1-------|
A ||---------0----------------------0-2--------------|
F#||-------------------------------------------------|
D ||-------------------------------------------------|
A ||-------------------------------------------------|
D ||-------------------------------------------------|
|
E ||--0h2p4------4/5--4\2p0--0h2p4------0-1-0-0------|
A ||---------0----------------------0-1--------------|
F#||-------------------------------------------------|
D ||-------------------------------------------------|
A ||-------------------------------------------------|
D ||-------------------------------------------------|

E ||--0h2p4------4p5--4p2p0--0h2p4-------0-1-1-------|
A ||---------0----------------------0-2--------------|
F#||-------------------------------------------------|
D ||-------------------------------------------------|
A ||-------------------------------------------------|
D ||-------------------------------------------------|
|
E ||--0h2p4------4/5--4\2p0--0h2p4------0-7-5-0--0---|
A ||---------0----------------------0-1----------0---|
F#||---------------------------------------------2---|
D ||---------------------------------------------2---|
A ||-------------------------------------------------|
D ||-------------------------------------------------|

hope this helps, and don't mean to undermine other corrections prior, but this sounds note for note.

guest
You may want to rate the tab now too:
select rating
Wanna post a correction for this tab? Suggest correction