Oops, an error
Loading. Please wait.

Roll Away Your Stone Bass Tab

version 2
version 2

Whole song

Interactive

901 views 3 this week
no commentswrite comment
1 2 3 4 5
accurate
x 3
add to favorites
launch autoscroll
font size
0
reset
guitar tuner
Autoscroll
slow
fast
+/-
esc
set tempo
stop
Help us to improve Ultimate-Guitar.com Take our survey!
×
Difficulty
intermediate
Roll away your stone my Mumford And Sons

Not 100% that its he part Ted( the bassist) plays but it sounds good and all fits.
Tuning: EBEA

On the side of the tab the notes are in standard tuning, not the tuning you need to be 
in for it to sounds correct,  so sorry if you get confused but in simple terms the
Low E stays the same
The A goes to a B
The D goes to an E
And G doesn’t matter as is not played.

Intro...

G/4th |-------------------------------------------------|
D/3rd |-------------------------------------------------|
A/2nd |-------------------------------------------------|
E/1st string |-0—0-0—2-2--0—--0—0-0-2-0-0-—(repeat x2)--|

Verse 1( roll away your stone......discover inside....)

G|----------------------------------------|
D|----------------------------------------|
A|----------------------------------------|
E|-0--5--0--0--5--0--0--5--0--7--5--2--0--|

Instrumental:

G/|-------------------------|
D/|-------------------------|
A/|-------------------------|
E/|-0--4--2--0-(Repeat x3) -|

Verse 2 ( You told me that i....... character it steals...)

G|-----------------------------------------------------------------------------|
D|-----------------------------------------------------------------------------|
A|-----------------------------------------------------------------------------|
E|SAME AS VERSE 1--------------------------------------------------------------|

Chorus ( Darkness is a.......don’t you think....dominates....things I see)

G|----------------------------------------------------------------------------------|
D|----------------------------------------------------------------------------------|
A|-2--------------------------------------------------------------------------------|
E|-------4--5--2--0—(x2)------------------------------------------------------------|
3rd verse is the same as the 1st and second, and the 2nd chorus is the same as the 
1st but its (x4).
Drop ( stars hide your fires......my desires...... newly impassioned soul)


G|-----------------------------------------------------------------------------|
D|-----------------------------------------------------------------------------|
A|-------------5--4--5-----------5--4--5---------------------------------5--4--|5.
E|-0--4--5--4-----------4--5--4-----------4--5--4--7--9-11--12—-4--5--4--------|

Stays the same although the lyrics change

Outro ( gone too far this time........rightfully mine)

G|-----------------------------------------|
D|-----------------------------------------|
A|-----------------------------------------|
E|-0--4--5--0--4--5--0--4--5--7---5--2--0--|
Suggest correction
Give kudos to tab author, rate the tab!
1 2 3 4 5
comments
print report bad tab
guest
You may want to rate the tab now too:
select rating
Wanna post a correction for this tab? Suggest correction