Oops, an error
Loading. Please wait.

Sigh No More Tab

version 6
version 6

Whole song

Interactive

55 views 9 this week
no commentswrite comment
1 2 3 4 5
2 more votes to show rating
add to favorites
launch autoscroll
font size
0
reset
how to read this tab
guitar tuner
Autoscroll
slow
fast
+/-
esc
set tempo
stop
Help us to improve Ultimate-Guitar.com Take our survey!
×
Author
Difficulty
intermediate
About this tab version
Changed to a similar layout of Version 4, with new notes and fixed errors. Was this info helpful? Yes No
Mumford and Sons – Sigh No More (Live at Glastonbury 2011)
https://www.youtube.com/watch?v=7uhf_LcLYgg

Tuning – CACGCE


[Intro]

 Play with your Thumb and Index Finger
E|-------------------------------------------------------|
C|--0-0-0-0-0-0-0-0-0-0-0-0-0-0-0-0---0-0-0-0-0-0-0-0----|
G|--0-0-0-0-0-0-0-0-0-0-0-0-0-0-0-0---0-0-0-0-0-0-0-0----|
C|-------------------------------------------------------|
A|-3-3-3-3-3-3-3-3-3-3-3-3-3-3/2-2-2/3-3-3-3-3-3-3-3-----|
C|-------------------------------------------------------|

E|-------------------------------------------------------|
C|--0-0-0-0-0-0-0-0--------------------------------------|
G|--0-0-0-0-0-0-0-0--------------------------------------|
C|-------------------------------------------------------|
A|-3-3-3-3-3-3-3-3---------------------------------------|
C|-------------------------------------------------------|


[Verse 1]

E|----------------------------------------|
C|--0-0-0-0-0-0-0-0-0-0-0-0-0-0-0-0-------|
G|--0-0-0-0-0-0-0-0-0-0-0-0-0-0-0-0-------|
C|----------------------------------------|
G|-3-3-3-3-3-3-3-3-3-3-3-3-3-3-3-3--------|
C|----------------------------------------|(x3)

  I'm Soooooooooooooory...
E|-------------------------------------------|
C|-----4-4-4-4-4-4-4-4-4-0-0-0-0-0-0-0-0-----|
G|-----2-2-2-2-2-2-2-2-2-0-0-0-0-0-0-0-0-----|
C|-------------------------------------------|
A|----0-0-0-0-0-0-0-0-0-3-3-3-3-3-3-3-3------|
C|-------------------------------------------|(x2)


[Then]

E|----------------------------------------------|
C|--4-4-4-4-2-2-2-2--0-0-0-0-0-0-0-0------------|
G|--0-0-0-0-0-0-0-0--0-0-0-0-0-0-0-0---0-2-0----|
C|------------------------------------------2-0-|
A|-3-3-3-3-2-2-2-2--3-3-3-3-3-3-3-3-------------|
C|----------------------------------------------|(x2)


[Verse 2]

E|----------------------------------------|
C|--4-4-4-4-2-2-2-2-0-0-0-0-0-0-0-0-------|
G|--0-0-0-0-0-0-0-0-0-0-0-0-0-0-0-0-------|
C|----------------------------------------|
A|-3-3-3-3-2-2-2-2-3-3-3-3-3-3-3-3--------|
C|----------------------------------------|(x3)

  Let ring           Let ring

  You Knooooooooooooooow Me...
E|----0------------------0------------------|
C|----4--4-4-4-4-4-4-4-4-0--0-0-0-0-0-0-0---|
G|----2--2-2-2-2-2-2-2-2-0--0-0-0-0-0-0-0---|
C|----0------------------0------------------|
A|----0---0-0-0-0-0-0-0--3---3-3-3-3-3-3----|
C|-----------------------0------------------|(x2)


[Bridge]

(Soft Strums)

  Man   Giddy Thing
E|-0-----0---------0----|
C|-0-----0---------0----|
G|-2-----0---------0----|
C|-4-----0---------0----|
A|-0-----8---------3----|
C|-0-----5---------0----|(x2)

   (Hard Strums)

  Man   Giddy Thing
E|-0-----0---------0----|
C|-0-----0---------0----|
G|-2-----0---------0----|
C|-4-----0---------0----|
A|-0-----8---------3----|
C|-0-----5---------0----|(x2)

(Palm Mute)

E|-0--|
C|-0--|
G|-0--|
C|-0--|   x10ish
A|-3--|
C|-0--|

(Palm Muted Strums)

  Love Betray Enslave Set  You  Free The Man  Made To  Be
E|-------------------------------------------------------|
C|-------------------------------------------------------|
G|-0------0------0-----0----0----0------0------2---0---0-|
C|-0------0------0-----0----0----0------0------4---0---0-|
A|-2------3------10----12---10---8------3------0---8---3-|
C|-0------0------7-----9----7----5------0------0---5---0-|
                       Strum Amount:
 x4     x4     x4    x2   x2   x4     x4     x2  x2  x10

  There Design  Cry  Heart  To  See  Of Love  Made To  Be
E|-------------------------------------------------------|
C|-------------------------------------------------------|
G|-0------0------0-----0----0----0------0------2---0---0-|
C|-0------0------0-----0----0----0------0------4---0---0-|
A|-2------3------10----12---10---8------3------0---8---3-|
C|-0------0------7-----9----7----5------0------0---5---0-|
                      Strum Amount
 x4     x4     x4    x2   x2   x4     x4     x2  x2  x10

Now Strum To Your Hearts Content (Fast Strums)

  Love Betray Enslave Set  You  Free The Man  Made To  Be
E|-0------0------0-----0----0----0------0------0---0---0-|
C|-0------0------0-----0----0----0------0------0---0---0-|
G|-0------0------0-----0----0----0------0------2---0---0-|
C|-0------0------0-----0----0----0------0------4---0---0-|
A|-2------3------10----12---10---8------3------0---8---3-|
C|-0------0------7-----9----7----5------0------0---5---0-|

 x8     x8     x8    x4   x4   x8     x8     x4  x4  x16

 There  Design  Cry  Heart  To  See  Of Love  Made To  Be
E|-0------0------0-----0----0----0------0------0---0---0-|
C|-0------0------0-----0----0----0------0------0---0---0-|
G|-0------0------0-----0----0----0------0------2---0---0-|
C|-0------0------0-----0----0----0------0------4---0---0-|
A|-2------3------10----12---10---8------3------0---8---3-|
C|-0------0------7-----9----7----5------0------0---5---0-|

 x8     x8     x8    x4   x4   x8     x8     x4  x4  x16

Repeat another two times


************************************

| /  Slide up

************************************
Suggest correction
Give kudos to tab author, rate the tab!
1 2 3 4 5
comments
print report bad tab
guest
You may want to rate the tab now too:
select rating
Wanna post a correction for this tab? Suggest correction