Oops, an error
Loading. Please wait.

The Cave Bass Tab

version 1
version 1

Whole song

38,826 views 36 this week
no commentswrite comment
1 2 3 4 5
accurate
x 10
add to favorites
launch autoscroll
font size
0
reset
guitar tuner
Autoscroll
slow
fast
+/-
esc
set tempo
stop
Help us to improve Ultimate-Guitar.com Take our survey!
×
Difficulty
novice
INTRO/VERSE
Starts at 0:28
G|--------------------|--------------------|
D|--------------------|--------------------|
A|---4~-------4~------|---4~---------------|
E|-------0~--------0~-|--------0~-2~-0~----|

CHORUS
Starts at 0:52
G|--------------------|--------------------|
D|--------------------|--------------------|
A|--4~-------4~-------|---------2~---------|
E|-----5~-0~----5~-0~-|--5~-0~------0~-----|

VERSE
Starts at 1:03
G|--------------------            |--------------------------------|
D|--------------------  2x and    |--------------------------------|
A|-4-4-4-4------------   then...  |-4-4-4-4------------------------|
E|---------0-0-0-0----            |---------0-0-2-2-0-0-0-2-0-0-0-0|

G|------------------|------------------|------------------------------|
D|------------------|------------------|------------------------------|
A|--4~--4~----------|--4~--4~----------|--4~--4~----------------------|
E|-----------0~--0~-|-----------0~--0~-|-----------0~-2~-0~-----------|

G|--------------------             |--------------------------------|
D|-------------------- 2x andthen. |--------------------------------|
A|-4-4-4-4------------             |-4-4-4-4------------------------|
E|---------0-0-0-0----             |---------0-0-2-2-0-0-0-2-0-0-0-0|

CHORUS 2
first part
G|--------------------               |-----------------------|
D|--------------------     2x and    |-----------------------|
A|--7-7-7-7-----------      then     |-----------2-2-2-2-----|
E|-----------5-5-0-0--               |--5-5-0-0--------------|

second part
G|--------------------             |-----------------------------|
D|--------------------     2x and  |-----------------------------|
A|--4-4-4-4-----------      then   |-----------2-2-2-2-2-2-2-2---| 
E|----------5-5-0-0---             |--5-5-0-0------------------0~|

then INTRO/VERSE
     CHORUS
     CHORUS 2 just first part 4 times
              second part last time
  



Sorry kind messy had to go. CHeers
Suggest correction
comments
print report bad tab
guest
You may want to rate the tab now too:
select rating
Please do not post tabs as comments. Select "correction" instead!