Oops, an error
Loading. Please wait.
We have Chord Pro version of The Cave.
It's the closest thing you can get to the original song and it has interactive parts. Check out the tab »
×

The Cave Tab

version 1
version 1

Whole song

Video

2,338,696 views 1,233 this week
96 commentsread comments
1 2 3 4 5
x 453
add to favorites
×
Save as Personal and add changes to this tab that will be seen only by you. Learn more ›
launch autoscroll
font size
0
reset
how to read this tab
guitar tuner
Autoscroll
slow
fast
+/-
esc
set tempo
stop
Author
Tuning
E A D G B E
Tuning(low to high) : D A D F# A D
How to tune:
http://www.youtube.com/results?search_query=how+to+tune+to+open+d&aq=f

As posted in the comments
D: 0 0 0 0 0 0 (instead of 000XXX)
G: 0 2 0 1 2 0 (instead of 555XXX)
A: 0 0 2 3 0 2 (instead of 777XXX)
Bm: 0 2 0 0 2 0 (instead of 999XXX)

Capo on 2nd fret


[Intro]

D ||-------------------------------------------------|
A ||-------------------------------------------------|
F#||-------------------0-------0-------0-------------|
D ||--/4--2--0-------0---0---0---0---0---0-----------|
A ||------------0--2-------2-------0-----------------|
D ||-------------------------------------------------| x3
                                                     |
D ||-------------------------------------------------|
A ||------------------------------0---0--------------|
F#||-------0--------0-------------1---0--------------|
D ||----------0---0---0------0----0---0--------------|
A ||-----4------------------------2---0--------------|
D ||--4---------0-------0---------0---0--------------|


[Verse 1]

D ||-------------------------------------------------|
A ||-------------------------------------------------|
F#||-------------------0-------0-------0-------------|
D ||--/4--2--0-------0---0---0---0---0---0-----------|
A ||------------0--2-------2-------0-------0---------|
D ||-------------------------------------------------| x3
                                                     |
D ||-------------------------------------------------|
A ||-------------------------------------------------|
F#||------0-------0------------/5---0----------------|
D ||----0---0---0---0------0---/5---0----------------|
A ||-------------------------------------------------|
D ||--4-------0--------0-----------------------------|


[Verse 2]

D ||-------------------------------------------------|
A ||-------------------------------------------------|
F#||-------------------0-------0-------0-------------|
D ||--/4--2--0-------0---0---0---0---0---0-----------|
A ||------------0--2-------2-------0-------0---------|
D ||-------------------------------------------------| x3
                                                     |
E ||-------------------------------------------------|
A ||-------------------------------------------------|
F#||------0-------0------------/5---0----------------|
D ||----0---0---0---0------0---/5---0---0--0--0--0---|
A ||------------------------------------0--0--0--0---|
D ||--4-------0--------0----------------0--0--0--0---|

[Chorus]

D ||--------------------------------------------------------------------|
A ||--------------------------------------------------------------------|
F#||--------------------------------------------------------------------|
D ||-0--0--0--0--5--5--0--0--0--0--0--0--5--5--0--0--5--5--0--0---------|
A ||-0--0--0--0--5--5--0--0--0--0--0--0--5--5--0--0--5--5--0--0---------|
D ||-0--0--0--0--5--5--0--0--0--0--0--0--5--5--0--0--5--5--0--0---------|
                                                                        |
D ||--------------------------------------------------------------------|
A ||--------------------------------------------------------------------|
F#||--------------------------------------------------------------------|
D ||-7--7--7--7--9--9--9--9--5--5--0--0--9--9--9--9--5--5--0--0---------|
A ||-7--7--7--7--9--9--9--9--5--5--0--0--9--9--9--9--5--5--0--0---------|
D ||-7--7--7--7--9--9--9--9--5--5--0--0--9--9--9--9--5--5--0--0---------|
                                                                        
D ||----------------------------|
A ||----------------------------|
F#||----------------------------|
D ||-5--5--0--0--7--7--7--7--7--|
A ||-5--5--0--0--7--7--7--7--7--|
D ||-5--5--0--0--7--7--7--7--7--|

D ||-------------------------------------------------|
A ||-------------------------------------------------|
F#||--------------------0-------0-------0------------|
D ||--/4-4-4-2-0------0---0---0---0---0---0---0------|
A ||-------------0--2-------2-------0-------0--------|
D ||-------------------------------------------------|

D ||-------------------------------------------------|
A ||-------------------------------------------------|
F#||-------------------0--------0-------0------------|
D ||--/4--2--0-------0---0---0----0---0---0----------|
A ||------------0--2-------2--------0-------0--------|
D ||-------------------------------------------------| x2
                                                     |
D ||-------------------------------------------------|
A ||-------------------------------------------------|
F#||------0-------0-----------/5---0-----------------|
D ||----0---0---0---0------0--/5---0-----------------|
A ||-------------------------------------------------|
D ||--4-------0--------0-----------------------------|


***********************************
| /   Slide up
***********************************
Suggest correction
comments
print report bad tab
96 comments total. Showing first comments.
+6 reply
mentalblock 147 Oct 29, 2009 11:55 PM

When i play it on my own in sounds perfect, but with the record it sounds funny. Out of key possibly? Otherwise very good tab

+5 reply
bjerki 119 Nov 03, 2009 02:07 PM

have you tuned it right and put the capo on 2nd fret?

+8 reply
fleshgolem 59 Nov 16, 2009 04:22 AM

You always tune without, anything else wouldnt really work well

guest
You may want to rate the tab now too:
select rating
Wanna post a correction for this tab? Suggest correction