Oops, an error
Loading. Please wait.

The Cave Tab

version 1
version 1

Whole song

Video

2,272,696 views 1,447 this week
94 commentsread comments
1 2 3 4 5
excellent!
x 397
add to favorites
launch autoscroll
font size
0
reset
how to read this tab
guitar tuner
Autoscroll
slow
fast
+/-
esc
set tempo
stop
Help us to improve Ultimate-Guitar.com Take our survey!
×
Author
Tuning(low to high) : D A D F# A D
How to tune:
http://www.youtube.com/results?search_query=how+to+tune+to+open+d&aq=f

As posted in the comments
D: 0 0 0 0 0 0 (instead of 000XXX)
G: 0 2 0 1 2 0 (instead of 555XXX)
A: 0 0 2 3 0 2 (instead of 777XXX)
Bm: 0 2 0 0 2 0 (instead of 999XXX)

Capo on 2nd fret


[Intro]

D ||-------------------------------------------------|
A ||-------------------------------------------------|
F#||-------------------0-------0-------0-------------|
D ||--/4--2--0-------0---0---0---0---0---0-----------|
A ||------------0--2-------2-------0-------0---------|
D ||-------------------------------------------------| x3
                                                     |
D ||-------------------------------------------------|
A ||-------------------------------------------------|
F#||------0-------0------------/5---0----------------|
D ||----0---0---0---0------0---/5---0----------------|
A ||-------------------------------------------------|
D ||--4-------0--------0-----------------------------|


[Verse 1]

D ||-------------------------------------------------|
A ||-------------------------------------------------|
F#||-------------------0-------0-------0-------------|
D ||--/4--2--0-------0---0---0---0---0---0-----------|
A ||------------0--2-------2-------0-------0---------|
D ||-------------------------------------------------| x3
                                                     |
D ||-------------------------------------------------|
A ||-------------------------------------------------|
F#||------0-------0------------/5---0----------------|
D ||----0---0---0---0------0---/5---0----------------|
A ||-------------------------------------------------|
D ||--4-------0--------0-----------------------------|


[Verse 2]

D ||-------------------------------------------------|
A ||-------------------------------------------------|
F#||-------------------0-------0-------0-------------|
D ||--/4--2--0-------0---0---0---0---0---0-----------|
A ||------------0--2-------2-------0-------0---------|
D ||-------------------------------------------------| x3
                                                     |
E ||-------------------------------------------------|
A ||-------------------------------------------------|
F#||------0-------0------------/5---0----------------|
D ||----0---0---0---0------0---/5---0---0--0--0--0---|
A ||------------------------------------0--0--0--0---|
D ||--4-------0--------0----------------0--0--0--0---|

[Chorus]

D ||--------------------------------------------------------------------|
A ||--------------------------------------------------------------------|
F#||--------------------------------------------------------------------|
D ||-0--0--0--0--5--5--0--0--0--0--0--0--5--5--0--0--5--5--0--0---------|
A ||-0--0--0--0--5--5--0--0--0--0--0--0--5--5--0--0--5--5--0--0---------|
D ||-0--0--0--0--5--5--0--0--0--0--0--0--5--5--0--0--5--5--0--0---------|
                                                                        |
D ||--------------------------------------------------------------------|
A ||--------------------------------------------------------------------|
F#||--------------------------------------------------------------------|
D ||-7--7--7--7--9--9--9--9--5--5--0--0--9--9--9--9--5--5--0--0---------|
A ||-7--7--7--7--9--9--9--9--5--5--0--0--9--9--9--9--5--5--0--0---------|
D ||-7--7--7--7--9--9--9--9--5--5--0--0--9--9--9--9--5--5--0--0---------|
                                                                        
D ||----------------------------|
A ||----------------------------|
F#||----------------------------|
D ||-5--5--0--0--7--7--7--7--7--|
A ||-5--5--0--0--7--7--7--7--7--|
D ||-5--5--0--0--7--7--7--7--7--|

D ||-------------------------------------------------|
A ||-------------------------------------------------|
F#||--------------------0-------0-------0------------|
D ||--/4-4-4-2-0------0---0---0---0---0---0---0------|
A ||-------------0--2-------2-------0-------0--------|
D ||-------------------------------------------------|

D ||-------------------------------------------------|
A ||-------------------------------------------------|
F#||-------------------0--------0-------0------------|
D ||--/4--2--0-------0---0---0----0---0---0----------|
A ||------------0--2-------2--------0-------0--------|
D ||-------------------------------------------------| x2
                                                     |
D ||-------------------------------------------------|
A ||-------------------------------------------------|
F#||------0-------0-----------/5---0-----------------|
D ||----0---0---0---0------0--/5---0-----------------|
A ||-------------------------------------------------|
D ||--4-------0--------0-----------------------------|


***********************************
| /   Slide up
***********************************
Suggest correction
What's this?
You can suggest a correction to this tab. Community and Mods will review your correction and vote to approve or reject it.
comments
print report bad tab
94 comments total. Showing first comments. show 1 bad comment
+5 reply
mentalblock 203 wrote on October 30 2009, 03:55 am

When i play it on my own in sounds perfect, but with the record it sounds funny. Out of key possibly? Otherwise very good tab

+5 reply
bjerki 597 wrote on November 3 2009, 07:07 pm

have you tuned it right and put the capo on 2nd fret?

guest
You may want to rate the tab now too:
select rating
Please do not post tabs as comments. Select "correction" instead!