Oops, an error
Loading. Please wait.

The Cave Bass Tab

version 2
version 2

Whole song

10,557 views 1 this week
no commentswrite comment
1 2 3 4 5
please rate
add to favorites
launch autoscroll
font size
0
reset
guitar tuner
Autoscroll
slow
fast
+/-
esc
set tempo
stop
Help us to improve Ultimate-Guitar.com Take our survey!
×
Author
Intro/Verse
Starts at 0:28
G|--------------------|--------------------|
D|--------------------|--------------------|
A|---4~-------4~------|---4~---------------|
E|-------0~--------0~-|--------0~-2~-0~----|

Chorus
starts at 0:52
G|--------------------|--------------------|
D|--------------------|--------------------|
A|--4~-------4~-------|---------2-2-2-2-2--|
E|-----5~-0~----5~-0~-|--5~-0~-------------|

Verse
starts at 1:03
G|--------------------|           |--------------------------------|
D|--------------------|  2x and   |--------------------------------|
A|-4-4-4-4------------|   then,   |-4-4-4-4------------------------|
E|---------0-0-0-0----|           |---------0-0-2-2-0-0-0-2-0-0-0-0|

G|------------------|------------------|-------------------------|
D|------------------|------------------|-------------------------|
A|---4~-------------|---4~-------------|---4~--------------------|
E|-------0~---------|-------0~---------|-------0~-2~-0~-2-0~-----|

G|--------------------|          |--------------------------------|
D|--------------------| 2x and   |--------------------------------|
A|-4-4-4-4------------|  then,   |-4-4-4-4------------------------|
E|---------0-0-0-0----|          |---------0-0-2-2-0-0-0-2-0-0-0-0|

Chorus 2
first part
G|--------------------|             |-----------------------|
D|--------------------|   2x and    |-----------------------|
A|--7-7-7-7-----------|    then     |-----------2-2-2-2-----|
E|-----------5-5-0-0--|             |--5-5-0-0--------------|

second part
G|--------------------|             |-----------------------------|
D|--------------------|   2x and    |-----------------------------|
A|--4-4-4-4-----------|    then     |-----------2-2-2-2-2-2-2-2---| 
E|----------5-5-0-0---|             |--5-5-0-0------------------0~|


Then, play:

Intro/Verse
Nothing
Chorus
Chorus 2 (First part 3 times, second part 1 time)
Suggest correction
Give kudos to tab author, rate the tab!
1 2 3 4 5
comments
print report bad tab
guest
You may want to rate the tab now too:
select rating
Please do not post tabs as comments. Select "correction" instead!