Oops, an error
Loading. Please wait.
We have Chord Pro version of The Cave.
It's the closest thing you can get to the original song and it has interactive parts. Check out the tab »
×

The Cave ukulele

version 3
version 3

Whole song

  • This version is one half-step higher than the orig... Show more
  • This is based on the studio version, although it d... Show more
70 views 9 this week
no commentswrite comment
1 2 3 4 5
3 more votes to show rating
add to favorites
×
Save as Personal and add changes to this tab that will be seen only by you. Learn more ›
×
You can save this tab as Personal to edit and correct it or add notes. All changes will be seen only by you. Learn more »
launch autoscroll
font size
0
reset
transpose
0
reset
display chords
guitar tuner
edit
Autoscroll
slow
fast
+/-
esc
set tempo
stop
Author
Difficulty
Strumming Is this strumming pattern correct? Yes No
142 bpm
1
 
 
&
 
 
2
 
 
&
 
 
3
 
 
&
Listen
[Intro and Verse 1]

A|-----------2--------2-----------2-----------2-----|
E|--4--2--0--------0-----0-----0-----0-----0-----0--|
C|--------------1-----------1-----------4-----------|
G|--------------------------------------------------|  x2
                                                                                   
A    E

A|-----------2--------2-----------2-----------2-----------2-----------2-----------0----2--|
E|--4--2--0--------0-----0-----0-----0-----0-----0-----0-----0-----0-----0-----0--0----0--|
C|--------------1-----------1-----------4-----------3-----------4-----------4-----1----4--|
G|--------------------------------------------------------------------------------2----1--|

[Chorus]
(For the first chorus, I like to strum each chord once and let it ring.
)

    E      A       E
But I will hold on hope

    E       A       E
And I won't let you choke

A      E        B
On the noose around your neck

    C#m       A           E
And I'll find strength in pain

    C#m    A         E
And I will change my ways

     A       E            B
I'll know my name as it's called again

[Instrumental]

(Immediately play these chords after the lick...
)


 C#m  E  C#m  E  C#m  E  
B  E


A|-----------------2--|
E|--0--2--4--2--0-----|
C|--------------------|
G|--------------------|

[Verse 2]

                   C#m               E
Cause I have other things to fill my time

                 C#m                 E
You take what is yours and I'll take mine

                  C#m
Now let me at the truth

           E          B      E
Which will refresh my broken mind


               C#m               E
So tie me to a post and block my ears

                     C#m                E
I can see widows and orphans through my tears

               C#m
I know my call despite my faults

    E          B       E
And despite my growing fears

[Chorus]

    E      A       E
But I will hold on hope

    E       A       E
And I won't let you choke

A      E        B
On the noose around your neck

    C#m       A           E
And I'll find strength in pain

    C#m    A         E
And I will change my ways

     A       E            B
I'll know my name as it's called again

[Verse 3]

                    C#m                  E
So come out of your cave walking on your hands

                  C#m            E
And see the world hanging upside down

                   C#m
You can understand dependence

         E        B       E
When you know the maker's hand


   E         A       E
So make your siren's call

    E    A       E
And sing all you want

  E        A             B
I will not hear what you have to say


      C#m    A       E
Cause I need freedom now

    C#m    A       E
And I need to know how

   A       E            B
To live my life as it's meant to be

[Instrumental 2]

E  A  E  E  A  E  A  
E  B x2


[Chorus]

    E      A       E
But I will hold on hope

    E       A       E
And I won't let you choke

A      E        B
On the noose around your neck

    C#m       A           E
And I'll find strength in pain

    C#m    A         E
And I will change my ways

     A       E            B             E
I'll know my name as it's called again


[Outro]

A|-----------2--------2-----------2-----------2-----|
E|--4--2--0--------0-----0-----0-----0-----0-----0--|
C|--------------1-----------1-----------4-----------|
G|--------------------------------------------------|  x2

                                                                                   
A    E

A|-----------2--------2-----------2-----------2-----------2-----------2-----------0----2--|
E|--4--2--0--------0-----0-----0-----0-----0-----0-----0-----0-----0-----0-----0--0----0--|
C|--------------1-----------1-----------4-----------3-----------4-----------4-----1----4--|
G|--------------------------------------------------------------------------------2----1--|
Suggest correction
Creating personal tab
Creating personal tab
You can edit any tab online and save it as your Personal.

You can edit, replace or remove any tab part or add personal notes – all changes will be seen only by you.

Personal tabs can be accessed anytime from any device, even offline.
Learn more »
Give kudos to tab author, rate the tab!
1 2 3 4 5
comments
print report bad tab
guest
You may want to rate the tab now too:
select rating
Wanna post a correction for this tab? Suggest correction