Oops, an error
Loading. Please wait.

The Enemy Tab

1,778 views 3 this week
no commentswrite comment
1 2 3 4 5
2 more votes to show rating
add to favorites
launch autoscroll
font size
0
reset
how to read this tab
guitar tuner
Autoscroll
slow
fast
+/-
esc
set tempo
stop
Help us to improve Ultimate-Guitar.com Take our survey!
×
Difficulty
Capo
novice
7th fret
Mumford and Sons - The Enemy
A great song but very few tabs for it!
This is not the official way to play this song but it sounds okay to me.
Suggestions and correction are much appreciated! x
(This is my first tab, so it might not be very good)

CAPO ON 7TH

Verse:
e|----------------------|
B|---0----2----0----0---|
G|---0----2----0----0---|x 4
D|----------------------|
A|-2---0----------------|
E|----------3-----0-----|

Chorus:
(In the chorus there is a mixture of strumming and picking. Listen to this cover: 
http://www.youtube.com/watch?v=pmyEOV8cYi0 and it should help with the strumming 
pattern and timing)

G
But I came and I was nothing.
e|----------|
B|---0----2-|
G|---0----2-|
D|----------|
A|-2---0----|
E|----------|

G
Time will give us nothing.
e|----------|
B|---0----2-|
G|---0----2-|
D|----------|
A|-2---0----|
E|----------|

G
So why did you choose to lean on,
e|----------|
B|---0----2-|
G|---0----2-|
D|----------|
A|-2---0----|
E|----------|

G
A man you knew was falling?
e|----------|
B|---0----2-|
G|---0----2-|
D|----------|
A|-2---0----|
E|----------|

Verse 2:
(The lyrics are the same but the pattern is different. Like the chorus, this verse also 
consists of both strumming and picking. Again listen to the cover for help)

e|----------|
B|---0----2-|
G|---0----2-|
D|----------|
A|-2---0----|
E|----------|
Give me hope in silence
G                 Em
It's easier, it's kinder
e|----------|
B|---0----2-|
G|---0----2-|
D|----------|
A|-2---0----|
E|----------|
Tell me not of heartbreak
G                      Em
It plagues my soul, it plagues my soul
e|----------|
B|---0----2-|
G|---0----2-|
D|----------|
A|-2---0----|
E|----------|
Bury me beside you
G              Em
I have no hope in solitude
e|----------|
B|---0----2-|
G|---0----2-|
D|----------|
A|-2---0----|
E|----------|
And the world will follow,
G             Em
To the earth, down below.

Chorus

Outro:
G Em
G Em(Single strum)
Suggest correction
Give kudos to tab author, rate the tab!
1 2 3 4 5
comments
print report bad tab
guest
You may want to rate the tab now too:
select rating
Wanna post a correction for this tab? Suggest correction