Oops, an error
Loading. Please wait.

To Darkness Tab

version 2
version 2

Whole song

  • Not a hundred percent accurate but fairly close.
31 views 1 this week
no commentswrite comment
1 2 3 4 5
2 more votes to show rating
add to favorites
launch autoscroll
font size
0
reset
how to read this tab
guitar tuner
Autoscroll
slow
fast
+/-
esc
set tempo
stop
Help us to improve Ultimate-Guitar.com Take our survey!
×
Author
Difficulty
intermediate
About this tab version
Not a hundred percent accurate but fairly close. Was this info helpful? Yes No
[Intro]


Em D G C Em
Em D G C Em
Em D G C Em

e|---------------------------------------------------------------------------|
B|---------------------------------------------------------------------------|
G|12--11--9--7----7---5---5---4---4---2---2---4---4---2---2---0---0---0---0--|
D|--------------0---0---0---0---0---0---0---0---0---0---0---0----------------|
A|--------------------------------------------------------------7---7---7---7|
E|12--10--8--7--------5-------3-------2-------3-------2-------/7------7------|

e|----------0---0---0---0----------------------------------------------------|
B|--0------------------------------------------------------------------------|
G|------0--------------------------------------------------------------------|
D|---------------------------------------------------------------------------|
A|----7---7---7---7---7---7--------------------------------------------------|
E|--7-------7-------7--------------------------------------------------------|

[Verse 1]

e|--------------------------------------------------------------------0------|
B|---------------------------------------------------------------------------|
G|12--11--9--7----7---5---5---4---4---2---2---4---4---2---2---0---0-------0--|
D|--------------0---0---0---0---0---0---0---0---0---0---0---0----------------|
A|--------------------------------------------------------------2---2---2---0|
E|12--10--8--7--------5-------3-------2-------3-------2-------0-------0------|
          I  will not Faaaaaaaaaaaaaaaaaaaaaaaaaaaaaaaaaaaaaaall

e|--------------------------------------------------------------------0------|
B|---------------------------------------------------------------------------|
G|12--11--9--7----7---5---5---4---4---2---2---4---4---2---2---0---0-------0--|
D|--------------0---0---0---0---0---0---0---0---0---0---0---0----------------|
A|--------------------------------------------------------------2---2---2---0|
E|12--10--8--7--------5-------3-------2-------3-------2-------0-------0------|
          Once more Im caaaaaaaaaaaaaaaaaaaaaaaaaaaaaaaaaaaalled

e|--------------------------------------------------------------------0------|
B|---------------------------------------------------------------------------|
G|12--11--9--7----7---5---5---4---4---2---2---4---4---2---2---0---0-------0--|
D|--------------0---0---0---0---0---0---0---0---0---0---0---0----------------|
A|--------------------------------------------------------------2---2---2---0|
E|12--10--8--7--------5-------3-------2-------3-------2-------0-------0------|
          Time comes for aaaaaaaaaaaaaaaaaaaaaaaaaaaaaaaaaaaaall

e|---------------------------------------------------------------------------|
B|---------------------------------------------------------------------------|
G|12--11--9--7----7---5---5---4---4---2---2---4---4---2---2---0---0---0---0--|
D|--------------0---0---0---0---0---0---0---0---0---0---0---0----------------|
A|--------------------------------------------------------------7---7---7---7|
E|12--10--8--7--------5-------3-------2-------3-------2-------/7------7------|
          Then Dark is whooooooooooooooooooooooooooooooooooooole

e|----------0---0---0---0----------------------------------------------------|
B|--0------------------------------------------------------------------------|
G|------0--------------------------------------------------------------------|
D|---------------------------------------------------------------------------|
A|----7---7---7---7---7---7--------------------------------------------------|
E|--7-------7-------7--------------------------------------------------------|

[Chorus]
                                       e|-----|
Em      D  Em                          B|-----|
But oh, My heart                       G|-----|
                                       D|-----|
D   Em     D Em      C                 A|---3-|
Was flawed I knew my weakness   Fill - E|-3---| (Or something he just picks bass notes on a C chord)

Em       D  Em
So hold, My hand

D  Em     D  Em     C
Subscribe me not to darkness


[Verse 2]

Same as Verse 1 with these lyrics (the same as in broken crown)

I will not speak of your sin
There is a way out for him
The mirror shows not
Yours values are all shot

[Chorus]

Em      D  Em
But oh, My heart

D   Em     D Em      C
Was flawed I knew my weakness   

Em       D  Em
So hold, My hand

D  Em     D  Em                                          C
Subscribe me not to (start strumming once on every beat) darkness


Em      D  Em
And oh, My heart

D   Em     D Em   G  C
Was flawed I knew my weakness

Em       D  Em
So hold, My hand

D  Em     D  Em  G  C
Subscribe me not to darkness

[Bridge]

Em D C
Em D C

Em    D    C 
And I fall short

Em    D    C
And I fall short

Em    D    C
And I fall short

Em    D    C
And I fall short

[Chorus]

But oh, My heart
Was flawed I knew my weakness    Fill
So hold, My hand
Subscribe me not to darkness     Fill

[Outro]

He quietly plucks some low notes before the outro in either a C or Em chord but i'm not sure what it is

e|----0-------3--2--0------------------------------0-------3--2--0-----------|
B|--0---0--1-----------4h5p4--0--2--4--4/5--5/7--0---0--1-----------4h5p4----|
G|---------------------------------------------------------------------------|
D|------------2--0-----------------------------------------2--0--------------|
A|---------0--------3--2------2--2--2--2/3--3/5---------0--------3--2--------|
E|--0--------------------------------------------0---------------------------|

e|---------------------------------------------------------------------------|
B|--0--2--4--4/5--5/7-----------8--------------------------------------------|
G|--------------------------9---9--------------------------------------------|
D|--------------------------9------------------------------------------------|
A|--2--2--2--2/3--3/5----7---------------------------------------------------|
E|---------------------7-----------------------------------------------------|


************************************

| h   Hammer-on
| p   Pull-off
| /   Slide up

************************************
Suggest correction
Give kudos to tab author, rate the tab!
1 2 3 4 5
comments
print report bad tab
guest
You may want to rate the tab now too:
select rating
Wanna post a correction for this tab? Suggest correction