Oops, an error
Loading. Please wait.

Untitled tab

version 4
version 4

Whole song

73 views 6 this week
no commentswrite comment
1 2 3 4 5
3 more votes to show rating
add to favorites
×
Save as Personal and add changes to this tab that will be seen only by you. Learn more ›
×
You can save this tab as Personal to edit and correct it or add notes. All changes will be seen only by you. Learn more »
launch autoscroll
font size
0
reset
how to read this tab
guitar tuner
edit
Autoscroll
slow
fast
+/-
esc
set tempo
stop
-------------------------------------------------------------------------------
                             UNTITLED - Mumford & Sons
-------------------------------------------------------------------------------
Tabbed by: Aidan Staines
E-mail: ajs_chess97@hotmail.com

Tuning: DADF#AD

First tab but don't be discouraged. I have spent a lot of time watching Marcus play and have critiqued
on a lot of other tabs before. After playing Mumfords songs for almost a year now I am certain this tab 
is the most correct and accurate for Untitled. For those who know how to play songs such as I Gave You
All it follows the same finger picking pattern. I have put a lot of effort and time into this tab and I 
hope I can get helpful feedback as I do wish to continue with tablature.

This particular tab is transcribed from their live performance as seen in this video here:
http://youtu.be/HnSYrhNY758



Intro: w/ fingers

D |--------------------------------------------------------------------------------------|
A |--5-------5---5-------5---------------------------------------------------------------|
F#|------0-----------0-------3-------3---3-------3---0-------0---5-------5---3-------3---|
D |------------------------------2-----------2-----------0-----------0-----------0-------|
A |--2-2-------2-2-2-------2-4-4-------4-4-4-------4-------------------------------------|
D |--------------------------------------------------0-0-------0-5-5-------5-4-4-------4-|

D |--------------------------------------------------|
A |--------------------------------------------------|
F#|--7-------7---7-------7---7-------7---7-------7---|x2
D |------0-----------0-----------0-----------0-------|
A |--------------------------------------------------|
D |--7-7-------7-7-7-------7-7-7-------7-7-7-------7-|

Verse 1:

D |--------------------------------------------------------------------------------------------------|
A |--------------------------------------------------------------------------------------------------|
F#|--0-------0---0-------0---0-------0---0-------0---5-------5---5-------5---5-------5---5-------5---|
D |------0-----------0-----------0-----------0-----------0-----------0-----------0-----------0-------|
A |--------------------------------------------------------------------------------------------------|
D |--0-0-------0-0-0-------0-0-0-------0-0-0-------0-5-5-------5-5-5-------5-5-5-------5-5-5-------5-|

D |--------------------------------------------------------------------------------------------------|
A |--------------------------------------------------------------------------------------------------|
F#|--0-------0---0-------0---0-------0---0-------0---7-------7---7-------7---7-------7---7-------7---|x2
D |------0-----------0-----------0-----------0-----------0-----------0-----------0-----------0-------|
A |--------------------------------------------------------------------------------------------------|
D |--0-0-------0-0-0-------0-0-0-------0-0-0-------0-7-7-------7-7-7-------7-7-7-------7-7-7-------7-|

Chorus 1:

D |--------------------------------------------------------------------------------------|
A |--5-------5---5-------5---------------------------------------------------------------|
F#|------0-----------0-------3-------3---3-------3---0-------0---5-------5---3-------3---|
D |------------------------------2-----------2-----------0-----------0-----------0-------|
A |--2-2-------2-2-2-------2-4-4-------4-4-4-------4-------------------------------------|
D |--------------------------------------------------0-0-------0-5-5-------5-4-4-------4-|

D |--------------------------------------------------|
A |--------------------------------------------------|
F#|--7-------7---7-------7---7-------7---7-------7---|x2
D |------0-----------0-----------0-----------0-------|
A |--------------------------------------------------|
D |--7-7-------7-7-7-------7-7-7-------7-7-7-------7-|

Interlude 1:

D |--------------------------------------------------------------------------------------------------|
A |--------------------------------------0-------0---0-------0---0-------0---0-------0---0-------0---|
F#|--0-------0---0-------0---0-------0-------0-----------0-----------0-----------0-----------0-------|
D |------0-----------0-----------0-------------------------------------------------------------------|
A |--------------------------------------------------------------------------------------------------|
D |--0-0-------0-0-0-------0-0-0-------0-0-0-------0-0-0-------0-0-0-------0-0-0-------0-0-0-------0-|

Verse 2:

D |--------------------------------------0-----------5-------5---5-------5---5-------5---5-------5---|
A |--0-------0---0-------0---0-------0-----------0-------5-----------5-----------5-----------5-------|
F#|------0-----------0-----------0-----------0-------------------------------------------------------|
D |--------------------------------------------------------------------------------------------------|
A |--------------------------------------------------------------------------------------------------|
D |--0-0-------0-0-0-------0-0-0-------0-0-0-------0-5-5-------5-5-5-------5-5-5-------5-5-5-------5-|

D |--0-------0---0-------0---0-------0---0-------0---0-------7---7-------7---7-------7---7-------7---|
A |------0-----------0-----------0-----------0-----------7-----------7-----------7-----------7-------|
F#|--------------------------------------------------------------------------------------------------| 
D |--------------------------------------------------------------------------------------------------|
A |--------------------------------------------------------------------------------------------------|
D |--0-0-------0-0-0-------0-0-0-------0-0-0-------0-7-7-------7-7-7-------7-7-7-------7-7-7-------7-|

D |--0-------0---0-------0---0-------0---0-------5---5--------5---5------5---5-------5---5-------5---|
A |------0-----------0-----------0-----------0-----------5-----------5-----------5-----------5-------|
F#|--------------------------------------------------------------------------------------------------|
D |--------------------------------------------------------------------------------------------------|
A |--------------------------------------------------------------------------------------------------|
D |--0-0-------0-0-0-------0-0-0-------0-0-0-------0-5-5-------5-5-5-------5-5-5-------5-5-5-------5-|

D |--0-------0---0-------0---0-------0---0-------0---0-------7---7-------7---7-------7---7-------7---|
A |------0-----------0-----------0-----------0-----------7-----------7-----------7-----------7-------|
F#|--------------------------------------------------------------------------------------------------| 
D |--------------------------------------------------------------------------------------------------|
A |--------------------------------------------------------------------------------------------------|
D |--0-0-------0-0-0-------0-0-0-------0-0-0-------0-7-7-------7-7-7-------7-7-7-------7-7-7-------7-|

Chorus 2:

D |--------------------------------------------------------------------------------------|
A |--5-------5---5-------5---------------------------------------------------------------|
F#|------0-----------0-------3-------3---3-------3---0-------0---5-------5---3-------3---|
D |------------------------------2-----------2-----------0-----------0-----------0-------|
A |--2-2-------2-2-2-------2-4-4-------4-4-4-------4-------------------------------------|
D |--------------------------------------------------0-0-------0-5-5-------5-4-4-------4-|

D |--------------------------------------------------|
A |--------------------------------------------------|
F#|--7-------7---7-------7---7-------7---7-------7---|
D |------0-----------0-----------0-----------0-------|
A |--------------------------------------------------|
D |--7-7-------7-7-7-------7-7-7-------7-7-7-------7-|

D |--------------------------------------------------------------------------------------|
A |--5-------5---5-------5---------------------------------------------------------------|
F#|------0-----------0-------3-------3---3-------3---0-------0---5-------5---3-------3---|
D |------------------------------2-----------2-----------0-----------0-----------0-------|
A |--2-2-------2-2-2-------2-4-4-------4-4-4-------4-------------------------------------|
D |--------------------------------------------------0-0-------0-5-5-------5-4-4-------4-|

D |------------------------------------------------------------0-|
A |------------------------------------------------------------0-|
F#|--7-------7---7-------7---7-------7---7-------7-------------0-|
D |------0-----------0-----------0-----------0-----------------0-|
A |------------------------------------------------------------0-|
D |--7-7-------7-7-7-------7-7-7-------7-7-7-------7-------------|


Interlude 2: w/ pick

D |----0-----0-0---0-----0-0--0------0-0---0-------0-|
A |----0-----0-0---0-----0-0--0------0-0---0---0-0-0-|
F#|----0-----0-0---0-----0-0--0------0-0---0---0-0-0-|x2
D |----0-----0-0---0-----0-0--0------0-0---0---0-0-0-|
A |----0-----0-0---0-----0-0--0------0-0---0---0-0-0-|
D |--0-----------0-----------0-----------0-----------|

Verse 3:

D |----0-----0-0---0-----0-0--0------0-0---0-------0---0-----0-0---0-----0-0---0-----0-0---0-------0-|
A |----0-----0-0---0-----0-0--0------0-0---0---0-0-0---0-----0-0---0-----0-0---0-----0-0---0---0-0-0-|
F#|----0-----0-0---0-----0-0--0------0-0---0---0-0-0---5-----5-5---5-----5-5---5-----5-5---5---5-5-5-|
D |----0-----0-0---0-----0-0--0------0-0---0---0-0-0---0-----0-0---0-----0-0---0-----0-0---0---0-0-0-|
A |----0-----0-0---0-----0-0--0------0-0---0---0-0-0-------------------------------------------------|
D |--0-----------0-----------0-----------0-----------5-----------5-----------5-----------5-----------|

D |----0-----0-0---0-----0-0--0------0-0---0-------0---0-----0-0---0-----0-0---0-----0-0---0-------0-|
A |----0-----0-0---0-----0-0--0------0-0---0---0-0-0---0-----0-0---0-----0-0---0-----0-0---0---0-0-0-|
F#|----0-----0-0---0-----0-0--0------0-0---0---0-0-0---7-----7-7---7-----7-7---7-----7-7---7---7-7-7-|
D |----0-----0-0---0-----0-0--0------0-0---0---0-0-0---0-----0-0---0-----0-0---0-----0-0---0---0-0-0-|
A |----0-----0-0---0-----0-0--0------0-0---0---0-0-0-------------------------------------------------|
D |--0-----------0-----------0-----------0-----------7-----------7-----------7-----------7-----------|

Chorus 3:

D |----0-----0-0---0-------0---0-----0-0---0-------0---0---0-0-0---0-------0---0-------0-|
A |----5-----5-5---5---5-5-5---0-----0-0---0---0-0-0---0---0-0-0---0---0-0-0---0---0-0-0-|
F#|----0-----0-0---0---0-0-0---3-----3-3---3---3-3-3---0---0-0-0---5---5-5-5---3---3-3-3-|
D |----4-----4-4---4---4-4-4---2-----2-2---2---2-2-2---0---0-0-0---0---0-0-0---0---0-0-0-|
A |--2-----------2-----------4-----------4-------------0---0-0-0-------------------------|
D |--------------------------------------------------0-----------5-----------4-----------|

D |----0-----0-0---0-----0-0---0-----0-0---0-------0-|
A |----0-----0-0---0-----0-0---0-----0-0---0---0-0-0-|
F#|----7-----7-7---7-----7-7---7-----7-7---7---7-7-7-|x2
D |----0-----0-0---0-----0-0---0-----0-0---0---0-0-0-|
A |--------------------------------------------------|
D |--7-----------7-----------7-----------7-----------|

D |----0-----0-0---0-------0---0-----0-0---0-------0---0-------0---0-------0---0-------0-|
A |----0-----0-0---0---0-0-0---0-----0-0---0---0-0-0---0---0-0-0---0---0-0-0---0---0-0-0-|
F#|----8-----8-8---8---8-8-8---10----1010--10--101010--12--121212--5---5-5-5---3---3-3-3-|
D |----0-----0-0---0---0-0-0---0-----0-0---0---0-0-0---0---0-0-0---0---0-0-0---0---0-0-0-|
A |--------------------------------------------------------------------------------------|
D |--9-----------9-----------11----------11----------12----------5-----------4-----------|

D |----0-----0-0---0-----0-0---0-----0-0---0-------0-|
A |----0-----0-0---0-----0-0---0-----0-0---0---0-0-0-|
F#|----7-----7-7---7-----7-7---7-----7-7---7---7-7-7-|
D |----0-----0-0---0-----0-0---0-----0-0---0---0-0-0-|
A |--------------------------------------------------|
D |--7-----------7-----------7-----------7-----------|

Instrumental/Bridge:

D |----0-----0-0---0-----0-0---0-------0---0-------0---0-----0-0---0-----0-0---0-------0-|
A |----0-----0-0---0-----0-0---0---0-0-0---0---0-0-0---0-----0-0---0-----0-0---0---0-0-0-|
F#|----12----1212--12----1212--10--121212--10--101010--8-----8-8---8-----8-8---8---8-8-8-|
D |----0-----0-0---0-----0-0---0---0-0-0---0---0-0-0---0-----0-0---0-----0-0---0---0-0-0-|
A |--------------------------------------------------------------------------------------|
D |--12----------12----------12----------11----------9-----------9-----------9-----------|

D |----0-------0---0-------0---0-----0-0---0-----0-0---0-----0-0---0-------0-|
A |----0---0-0-0---0---0-0-0---0-----0-0---0-----0-0---0-----0-0---0---0-0-0-|
F#|----5---5-5-5---3---3-3-3---7-----7-7---7-----7-7---7-----7-7---7---7-7-7-|x6
D |----0---0-0-0---0---0-0-0---0-----0-0---0-----0-0---0-----0-0---0---0-0-0-|
A |--------------------------------------------------------------------------|
D |--5-----------4-----------7-----------7-----------7-----------7-----------|

Note: strumming becomes more intensive during the instrumental, had a hard time trying to transcribe it 
so listen to the video as a guide. Make sure the A string is muted with your index finger throughout the
strumming section of the song. Enjoy the tab and hopefully you'll have as much fun playing the song as I
have.
************************************

| /   slide up
| \   slide down
| h   hammer-on
| p   pull-off
| ~   vibrato
| +   harmonic
| x   Mute note
| b   Bend
| pb  Pre-bend
| br  Bend release
| pbr Pre-bend release
| brb Bend release bend

************************************
Suggest correction
Creating personal tab
Creating personal tab
You can edit any tab online and save it as your Personal.

You can edit, replace or remove any tab part or add personal notes – all changes will be seen only by you.

Personal tabs can be accessed anytime from any device, even offline.
Learn more »
Give kudos to tab author, rate the tab!
1 2 3 4 5
comments
print report bad tab
guest
You may want to rate the tab now too:
select rating
Wanna post a correction for this tab? Suggest correction