Oops, an error
Loading. Please wait.
We have Chord Pro version of Winter Winds.
It's the closest thing you can get to the original song and it has interactive parts. Check out the tab »
×
10,438 views 3 this week
no commentswrite comment
1 2 3 4 5
x 5
add to favorites
launch autoscroll
font size
0
reset
guitar tuner
Autoscroll
slow
fast
+/-
esc
set tempo
stop
Author
Difficulty
novice
My first tab.  Think I may have messed up the layout a bit.  There should
 be the same amount time in between most of the notes, other than the
 obvious ones which have big gaps between.  
This may require a couple of listens to the song to work out timing.
  Probably should note Mumford and Sons don't have an electric bass player,
 he uses a double bass.

Intro
G----------------------------------------------------|  The intro is the 
D----------------------------------------------------|  same as the chorus.
A----3---------3---------5-------3---------3--------5|  
E---------3---------3-----------------3---------3----|

Verse 1 - Slight break then come in at 0:30
G----------------------------------------------------|  
D----------------------------------------------------|  
A----3---------5---------3---------5-----------------|  
E---------3---------0---------3---------0------------|

Chorus 1
G----------------------------------------------------|
D----------------------------------------------------|  
A----3---------3---------5-------3---------3--------5|  
E---------3---------3-----------------3---------3----|

Verse 2
G----------------------------------------------------|
D----------------------------------------------------|  x2
A----3---------5---------3---------5-----------------|  
E---------3---------0---------3---------0------------|

Chorus 2
G----------------------------------------------------|
D----------------------------------------------------|  
A----3---------3---------5-------3---------3--------5|  
E---------3---------3-----------------3---------3----|

Verse 3
G----------------------------------------------------|  Play softly.
D----------------------------------------------------|  
A----3---------5---------3---------5-----------------|  
E---------3---------0---------3---------0------------|

G----------------------------------------------------|  When banjo kicks in
D----------------------------------------------------|  start to play harder
A----3---------5---------3---------5-----------------|  again. (at 2:16)
E---------3---------0---------3---------0------------|  x2

Middle 8 and Outro
G----------------------------------------------------|  x3
D----------------------------------------------------|  
A----3---------3---------5-------3---------3--------5|  
E---------3---------3-----------------3---------3----|


Ok, thats it, any mistakes email me at geoffjonas@btinternet.com otherwise enjoy!


Suggest correction
comments
print report bad tab
guest
You may want to rate the tab now too:
select rating
Wanna post a correction for this tab? Suggest correction