Oops, an error
Loading. Please wait.

Winter Winds Bass Tab

version 2
version 2

Whole song

Interactive

5,381 views 1 this week
no commentswrite comment
1 2 3 4 5
accurate
x 3
add to favorites
launch autoscroll
font size
0
reset
guitar tuner
Autoscroll
slow
fast
+/-
esc
set tempo
stop
Help us to improve Ultimate-Guitar.com Take our survey!
×
Contributor
Macheeoo 4,836
-----------------------------------------------------------------------------
                      WINTER WINDS - Mumford & Sons
-----------------------------------------------------------------------------

Tabbed By : Macheeoo
e-mail: macheeoo@yahoo.com

Tuning: Standard (Drop the low E string to C)

*READ!!!!!!!
I am 99.99999% sure that this is right, confirmed by videos, etc. He can stay completely 
on 1 string and riff on the others!
This song, Ted mostly just holds powerful single notes and sustains them.

Intro:           (Same as the chorus  0:00-0:17)
G|--------------------------------------------------------------------------|
D|--------------------------------------------------------------------------|
A|--------------------------------------------------------------------------|
C|---0---7~---0-7--2~----0---7~---0-7--2~--2/7~-----------------------------|

(Don't play 0:18-0:29)

Verse:           (Come in at 0:30)
G|--------------------------------------------------------------------------|
D|--------------------------------------------------------------------------|
A|--------------------------------------------------------------------------|
C|---7~---2~---4~---0----7~---2~---4~---0-----------------------------------|

Chorus:          (0:43-1:00)
G|--------------------------------------------------------------------------|
D|--------------------------------------------------------------------------|
A|--------------------------------------------------------------------------|
C|---0---7~---0-7--2~----0---7~---0-7--2~--2/7~-----------------------------|

Verse  x2    (1:01-1:28)

Chorus x1    (1:29-1:52)

Verse  X4    (1:53-2:41)

Chorus x6    (2:42-3:25)

Then end song with -   (3:26-3:39)
G|--------------------------------------------------------------------------|
D|--------------------------------------------------------------------------|
A|--------------------------------------------------------------------------|
C|---2-2-2-2-2-2-2-2/7~-----------------------------------------------------|


| /  slide up
| \  slide down
| h  hammer-on
| p  pull-off
| ~  vibrato
| +  harmonic
| x  Mute note
=============================================================================
comments
We did not receive enough feedback on this tab! Please rate:
print report bad tab
1 2 3 4 5
I want to post or [tab]
guest
You may want to rate the tab now too:
select rating
Please do not post tabs as comments. Select "correction" instead!