Oops, an error
Loading. Please wait.

You Aint No Sailor chords

842 views 12 this week
no commentswrite comment
1 2 3 4 5
1 last vote to show rating
add to favorites
×
Save as Personal and add changes to this tab that will be seen only by you. Learn more ›
×
You can save this tab as Personal to edit and correct it or add notes. All changes will be seen only by you. Learn more »
launch autoscroll
font size
0
reset
transpose
0
reset
simplify chords
display chords
guitar tuner
edit
Autoscroll
slow
fast
+/-
esc
set tempo
stop
Strumming
There is no strumming pattern for this song yet. and get +5 IQ
Mumford & Sons (aka Marcus Mumford) - You Ain't No Sailor
-------------------------------------------------------------

==========
[CAPO VII]
==========

Intro (+ verses)

|-3----3----0----0----1----1----0-------0-1--3----3----0----0----1----1----0----0--|
|--1----1----1----1----1----1----1----3-------1----1----1----1----1----1----1----1-|
|---0----0----0----0----0----0----0------------0----0----0----0----0----0----0----0|    x2
|----------------------------------------------------------------------------------|
|----------------------------------------------------------------------------------|
|----------------------------------------------------------------------------------|

or

(C*    | x32013)
(Gsus4 | 320013)

C* - C - F - C x2

[Verse 1]

C*                C
Kate wasn't in to moderation
F                  C
That's what led to her frustration
         C*         C             F       C
With the state of her crumbling heart
           C*                 C
She'd say "I'm not a girl for temperance,
         F               C
Though I know it's at my heart's expense
      C*              C                  F        C          
But a downward spiral has to have a rock bottom.


C* - C - F - C 2x  (6 downstrokes per chord)


[Verse 2]

      C*                   C
She'd paint the walls with blue and green
F                            C
Singing 'bout sing about her lovers and dreams and
C*          C              F       C
Explain her hopeless desperation
C*                    C
Take off your shoes unravel your blues
C*                    C
This place is full of beggars and choosers
        C*                 C          F        C  
But the consequence of her liberty is bad


[Chorus]

       G                     C      F          
But my heart wants to go one way my mind don't agree
      G               C          F     
Cause they, they have fallen out recently


[Instrumental]

|-3----3----0----0----1----1----0-------0-1--3----3----0----0----1----1----0----0--|
|--1----1----1----1----1----1----1----3-------1----1----1----1----1----1----1----1-|
|---0----0----0----0----0----0----0------------0----0----0----0----0----0----0----0|    x2
|----------------------------------------------------------------------------------|
|----------------------------------------------------------------------------------|
|----------------------------------------------------------------------------------|

[Verse 3]

C*        C
"Know thy self" she said 
       F                     C
as she guarded me 'round the land of the dead
     C*         C                   F            C
Introducing her friend stuck in the same mess
C*                       C
Ships might be built for sailing, my love
    F               C
and easels made for painting
    C*           C                        F             C
But you ain't no sailor and I'll never be camera shy


[Chorus]
       
G                        C      F          
My heart wants to go one way my mind don't agree
G                            C   F     
Cause they, they have fallen out recently
G              Gsus4  G
Well she said
C       G      F         C      G      F
"will I praise again? Oh will I praise again?"


G - F
G - C - F

[Chorus]

         G                     C      F                    
Cause my heart wants to go one way my mind don't agree
    G               C          F  
And they, they have fallen out recently
G              Gsus4 G
And she said,

    C      G      F
"Oh will I praise again?"
    C      G      F
"Oh will I praise again?"
 C              G     F
"Will I, will I sing again?"
 C       G     F    
"Will I, praise again?"
Suggest correction
Creating personal tab
Creating personal tab
You can edit any tab online and save it as your Personal.

You can edit, replace or remove any tab part or add personal notes – all changes will be seen only by you.

Personal tabs can be accessed anytime from any device, even offline.
Learn more »
Give kudos to tab author, rate the tab!
1 2 3 4 5
comments
print report bad tab
guest
You may want to rate the tab now too:
select rating
Wanna post a correction for this tab? Suggest correction