Oops, an error
Loading. Please wait.

Death Ripper bass

3,725 views 3 this week
1 commentread comment
1 2 3 4 5
1 last vote to show rating
add to favorites
×
Save as Personal and add changes to this tab that will be seen only by you. Learn more ›
×
You can save this tab as Personal to edit and correct it or add notes. All changes will be seen only by you. Learn more »
launch autoscroll
font size
0
reset
guitar tuner
edit
Autoscroll
slow
fast
+/-
esc
set tempo
stop
Author
Difficulty
Intro
G-------------------------------------|
D-------------------------------------|
A-3-2-3-5-3-2--------3-2-3-5-3-2------|
E------------3-2-0~-------------3-2-0-|

2nd riff
G---------------------------------------------------------------------------|
D---------------------------------------------------------------------------|
A------8-7-5-7-8--------3-5--3-2-3-2-------8-7-5-7-8----7-8-7-3-5--3-2-3-2--|
E-0-0--------------0-0----------------3-0-0---------0-0--0---0-0-0--------3-|

G----------------------------------------------------------------|
D----------------------------------------------------------------|
A-----7---8-7---5---7---8-7-5-7-8------7---8-7---3--5---3-2-3-2--|  x2
E-0-0---0-----0---0---0------------0-0---0-----0--0---0--------3-|

G---------------------------------------------------------------|
D-----7---8-7---5---7---8-7-5-7-8------7---8-7--3--5-3-2-3-2----|
A-0-0---0-----0---0---0------------0-0---0-----0------------3-2-|  x2
E---------------------------------------------------------------|

3rd riff
G------------------------------------------------|
D----------------------------------------------7-|
A-----8-7---5-7---3-5-3-5---7---8-7---5-7---5-7--|
E-0----------------------------------------------|

G--------------------------------------------|
D------------------------------------------7-|
A-7---8-7--5-7---3-5-3-5--7---8-7--5-7--5-7--|  x3
E--000---00---00-----------000---00---00-----|

4th riff
G---------------------------------------------|
D---------------------------------------------|
A--------22-2--33-3--55-5-55-55--222-3-2-0----|
E-00000000---------------------------------3--|

G----------------------------------------|
D----------------------------------------|
A-----2-2-2--3-3-3--5-5-5~--2-2-2-3-2-0--|  (slower)
E-0~-----------------------------------3-|

G-----------------------------------|
D-----------------------------------|
A----------------2------------------|
E-0-0000000000000-000000000000000-\-|

5th riff
G--------------------------|
D------------------------5-|
A-5-7--5-7--8-7--5-7--5-7--|
E--------------------------|

G-------------------------------------------------------|
D-----------------------------------------------------7-|
A-5-7--5-7--8-7--5-7--3-5-3-2--5-7--5-7--8-7--5-7--5-7--|
E----0----0----0----0-------------0----0----0----0------|

6th riff
G----------------------------------------------------|
D----------------------------------------------------|
A---------2-3--3---3-5--5-5-5-5-5-5-5-5--2-3---3-2---|
E-00000000---0--00---------------------------0-----3-|

G------------------------------------------------------------|
D--------------------------------11-12-11-12-11--------------|
A---------2-3--3--3-5-5-/11-12-14--------------14-12-11------|
E-00000000---0--00-------------------------------------14-12-|

5th riff x2
4th riff x2
3rd riff x2

Ending
G----------------|
D-5~-------------|
A-----7--3-----7-|
E-----------3----|
Suggest correction
Creating personal tab
Creating personal tab
You can edit any tab online and save it as your Personal.

You can edit, replace or remove any tab part or add personal notes – all changes will be seen only by you.

Personal tabs can be accessed anytime from any device, even offline.
Learn more »
Give kudos to tab author, rate the tab!
1 2 3 4 5
comments
print report bad tab
1 comment total.
0 reply
ShredHead396 200 Jul 29, 2009 11:14 PM

Hey can we get this tabbed but for guitar?
I wanna do this with the band and our bass learned from your tab so if you can get this done for guitar that would be wicked, cheers on the good bass tab man

guest
You may want to rate the tab now too:
select rating
Wanna post a correction for this tab? Suggest correction