Oops, an error
Loading. Please wait.

Sadistic Magician tab

version 1
version 1

Whole song

Interactive

12,993 views 9 this week
no commentswrite comment
1 2 3 4 5
x 6
add to favorites
×
Save as Personal and add changes to this tab that will be seen only by you. Learn more ›
×
You can save this tab as Personal to edit and correct it or add notes. All changes will be seen only by you. Learn more »
launch autoscroll
font size
0
reset
how to read this tab
guitar tuner
edit
Autoscroll
slow
fast
+/-
esc
set tempo
stop
Author
Difficulty
                            Sadistic Magician                              
                             Municipal Waste

                                                            
Tabbed by BlisteringDDj



                             H        E  E  E  E   
E||-------|-------|-------|-----------------------|
B||-------|-------|-------|-----------------------|
G||-------|-------|-------|-----------------------|
D||-------|-------|-------|--------------8--7--5--|
A||-------|-------|-------|--------------8--7--5--|
E||-------|-------|-------|--------------6--5--3--|


  E  E  E  E  E  E  E  E     E  E  E  E  E  E  E  E   
--------------------------|--------------------------|
--------------------------|--------------------------|
--------------------------|--------------------------|
--8--------5-----7--8-----|-----5-----7-----8--7--5--|
--8--------5-----7--8-----|-----5-----7-----8--7--5--|
--6--0--0--3--0--5--6--0--|--0--3--0--5--0--6--5--3--|


  E  E  E  E  E  E  E  E     E  E  E  E  E  E  E  E   
--------------------------|--------------------------|
--------------------------|--------------------------|
--------------------------|--------------------------|
--8--------5-----7--8-----|-----5-----7-----8--7--5--|
--8--------5-----7--8-----|-----5-----7-----8--7--5--|
--6--0--0--3--0--5--6--0--|--0--3--0--5--0--6--5--3--|


  E  E  E  E  E  E  E  E     E  E  E  E  E  E  E  E   
--------------------------|--------------------------|
--------------------------|--------------------------|
--------------------------|--------------------------|
--8--------5-----7--8-----|-----5-----7-----8--7--5--|
--8--------5-----7--8-----|-----5-----7-----8--7--5--|
--6--0--0--3--0--5--6--0--|--0--3--0--5--0--6--5--3--|


  E  E  E  E  E  E  E  E     E  E  E  E  E  E  E  E   
--------------------------|--------------------------|
--------------------------|--------------------------|
--------------------------|--------------------------|
--8--------5-----7--8-----|-----5-----7-----8--7--5--|
--8--------5-----7--8-----|-----5-----7-----8--7--5--|
--6--0--0--3--0--5--6--0--|--0--3--0--5--0--6--5--3--|


  E  E  E  E  E  E  E  E     E  E  E  E  E  E  E  E   
--------------------------|--------------------------|
--------------------------|--------------------------|
--------------------------|--------------------------|
--8--------5-----7--8-----|-----5-----7-----8--7--5--|
--8--------5-----7--8-----|-----5-----7-----8--7--5--|
--6--0--0--3--0--5--6--0--|--0--3--0--5--0--6--5--3--|


  E  E  E  E  E  E  E  E     E  E  E  E  E  E  E  E   
--------------------------|--------------------------|
--------------------------|--------------------------|
--------------------------|--------------------------|
--8--------5-----7--8-----|-----5-----7-----8--7--5--|
--8--------5-----7--8-----|-----5-----7-----8--7--5--|
--6--0--0--3--0--5--6--0--|--0--3--0--5--0--6--5--3--|


  E   E  E  E  E  E  E  E     E  E  E  E  E  E  E  E   
---------------------------|--------------------------|
---------------------------|--------------------------|
---------------------------|--------------------------|
--8\-----------------------|--------------------------|
--8\-----------------------|--------------------------|
--6\--0--0--0--0--0--0--0--|--0--0--0--0--0--0--0--0--|


  E  E  E   E   E   E   E  E     E  E  E   E   E   E   E  E   
------------------------------|------------------------------|
------------------------------|------------------------------|
------------------------------|------------------------------|
--8--7--7--11--11--10--10--8--|--8--7--7--11--11--10--10--8--|
--8--7--7--11--11--10--10--8--|--8--7--7--11--11--10--10--8--|
--6--5--5---9---9---8---8--6--|--6--5--5---9---9---8---8--6--|


  E   E  E  E  E  E  E  E     E  E  E  E  E  E  E  E   
---------------------------|--------------------------|
---------------------------|--------------------------|
---------------------------|--------------------------|
--8\-----------------------|--------------------------|
--8\-----------------------|--------------------------|
--6\--0--0--0--0--0--0--0--|--0--0--0--0--0--0--0--0--|


  E  E  E   E   E   E   E  E     E  E  E   E   E   E   E  E   
------------------------------|------------------------------|
------------------------------|------------------------------|
------------------------------|------------------------------|
--8--7--7--11--11--10--10--8--|--8--7--7--11--11--10--10--8--|
--8--7--7--11--11--10--10--8--|--8--7--7--11--11--10--10--8--|
--6--5--5---9---9---8---8--6--|--6--5--5---9---9---8---8--6--|


  E   E  E  E  E  E  E  E     E  E  E  E  E  E  E  E   
---------------------------|--------------------------|
---------------------------|--------------------------|
---------------------------|--------------------------|
--8\-----------------------|--------------------------|
--8\-----------------------|--------------------------|
--6\--0--0--0--0--0--0--0--|--0--0--0--0--0--0--0--0--|


  E  E  E   E   E   E   E  E     E  E  E   E   E   E   E  E   
------------------------------|------------------------------|
------------------------------|------------------------------|
------------------------------|------------------------------|
--8--7--7--11--11--10--10--8--|--8--7--7--11--11--10--10--8--|
--8--7--7--11--11--10--10--8--|--8--7--7--11--11--10--10--8--|
--6--5--5---9---9---8---8--6--|--6--5--5---9---9---8---8--6--|


  S S S S S S S S S S S S S S S S    S S S S S S S S S S S S S S S S  
----------------------------------|----------------------------------|
----------------------------------|----------------------------------|
----------------------------------|----------------------------------|
----------------------------------|----------------------------------|
----------------------------------|----------------------------------|
--6-6-5-5-5-5-9-9-9-9-8-8-8-8-6-6-|--6-6-5-5-5-5-9-9-9-9-8-8-8-8-6-6-|


                          |----3----|    |----3----|     
  E  Q    E  E  Q.        Q    Q    Q    Q    Q    Q     
-----------------------|--------------------------------|
-----------------------|--------------------------------|
-----------------------|--------------------------------|
--3--3----3--3--3------|--6----8----6----9----8----6----|
--1--1----1--1--1------|--4----6----4----7----6----4----|
-----------------------|--4----6----4----7----6----4----|


                          |----3----|    |----3----|     
  E  Q    E  E  Q.        Q    Q    Q    Q    Q    Q     
-----------------------|--------------------------------|
-----------------------|--------------------------------|
-----------------------|--------------------------------|
--3--3----3--3--3------|--6----8----6----9----8----6----|
--1--1----1--1--1------|--4----6----4----7----6----4----|
-----------------------|--4----6----4----7----6----4----|


  E  Q.     E  Q.        E  Q.     E  Q.        E  Q    E  E  Q.      
----------------------|----------------------|-----------------------|
----------------------|----------------------|-----------------------|
------------6--6------|----------------------|-----------------------|
--3--3------4--4------|--6--6----------------|--3--3----3--3--3------|
--1--1----------------|--4--4------6--6------|--1--1----1--1--1------|
----------------------|------------4--4------|-----------------------|


  |----3----|    |----3----|                             
  Q    Q    Q    Q    Q    Q       E  Q    E  E  Q.      
--------------------------------|-----------------------|
--------------------------------|-----------------------|
--------------------------------|-----------------------|
--6----8----6----9----8----6----|--3--3----3--3--3------|
--4----6----4----7----6----4----|--1--1----1--1--1------|
--4----6----4----7----6----4----|-----------------------|


  |----3----|    |----3----|                            
  Q    Q    Q    Q    Q    Q       E  Q.     E  Q.      
--------------------------------|----------------------|
--------------------------------|----------------------|
--------------------------------|------------6--6------|
--6----8----6----9----8----6----|--3--3------4--4------|
--4----6----4----7----6----4----|--1--1----------------|
--4----6----4----7----6----4----|----------------------|


                                         |----3----|     
  E  Q.     E  Q.        S S S S S S S S Q    Q    Q     
----------------------|---------------------------------|
----------------------|---------------------------------|
----------------------|---------------------------------|
--6--6----------------|--3---------------3----4----3----|
--4--4------6--6------|--1-1-1-1-1-1-1-1----------------|
------------4--4------|---------------------------------|


                  |----3----|                       |----3----|     
  S S S S S S S S Q    Q    Q       S S S S S S S S Q    Q    Q     
---------------------------------|---------------------------------|
---------------------------------|---------------------------------|
---------------------------------|---------------------------------|
--6---------------6----4----3----|--3---------------3----4----3----|
--4-4-4-4-4-4-4-4----------------|--1-1-1-1-1-1-1-1----------------|
---------------------------------|---------------------------------|


                                                    |----3----|     
  S S S S S S S S   E    Q.         S S S S S S S S Q    Q    Q     
---------------------------------|---------------------------------|
---------------------------------|---------------------------------|
---------------------------------|---------------------------------|
---------------------------------|--3---------------3----4----3----|
--6---------------<>4--<>4~------|--1-1-1-1-1-1-1-1----------------|
--4-4-4-4-4-4-4-4----------------|---------------------------------|


                  |----3----|                       |----3----|     
  S S S S S S S S Q    Q    Q       S S S S S S S S Q    Q    Q     
---------------------------------|---------------------------------|
---------------------------------|---------------------------------|
---------------------------------|---------------------------------|
--6---------------6----4----3----|--3---------------3----4----3----|
--4-4-4-4-4-4-4-4----------------|--1-1-1-1-1-1-1-1----------------|
---------------------------------|---------------------------------|


                  |----3----|                       |----3----|     
  S S S S S S S S Q    Q    Q       S S S S S S S S Q    Q    Q     
---------------------------------|---------------------------------|
---------------------------------|---------------------------------|
---------------------------------|---------------------------------|
---------------------------------|--3---------------3----4----3----|
--6---------------4----4----4----|--1-1-1-1-1-1-1-1----------------|
--4-4-4-4-4-4-4-4----------------|---------------------------------|


                  |----3----|                       |----3----|     
  S S S S S S S S Q    Q    Q       S S S S S S S S Q    Q    Q     
---------------------------------|---------------------------------|
---------------------------------|---------------------------------|
---------------------------------|---------------------------------|
--6---------------6----4----3----|--3---------------3----4----3----|
--4-4-4-4-4-4-4-4----------------|--1-1-1-1-1-1-1-1----------------|
---------------------------------|---------------------------------|


                  |----3----|                                        
  S S S S S S S S Q    Q    Q       S S S S S S S S S S S S S S S S  
---------------------------------|----------------------------------|
---------------------------------|----------------------------------|
---------------------------------|----------------------------------|
---------------------------------|----------------------------------|
--6---------------4----4----4----|--8-------------------------------|
--4-4-4-4-4-4-4-4----------------|--6-6-6-6-6-6-6-6-6-6-6-6-6-6-6-6-|


                  |----3----|                                        
  S S S S S S S S Q    Q    Q       S S S S S S S S S S S S S S S S  
---------------------------------|----------------------------------|
---------------------------------|----------------------------------|
---------------------------------|----------------------------------|
---------------------------------|----------------------------------|
------------------6----6----6----|--8-------------------------------|
--6-6-6-6-6-6-6-6-4----4----4----|--6-6-6-6-6-6-6-6-6-6-6-6-6-6-6-6-|


  |---3---|  |---3---|  |---3---|          
  E   E   E  E   E   E  E   E   E    Q     
------------------------------------------|
------------------------------------------|
------------------------------------------|
-----------------------------------<>6----|
--8h--9p--8--6h--8p--6--4h--6p--4---------|
------------------------------------------|


                                                     |----3----|     
  S S S S S S S S S S S S S S S S    S S S S S S S S Q    Q    Q     
----------------------------------|---------------------------------|
----------------------------------|---------------------------------|
----------------------------------|---------------------------------|
----------------------------------|---------------------------------|
--8-------------------------------|------------------6----6----6----|
--6-6-6-6-6-6-6-6-6-6-6-6-6-6-6-6-|--6-6-6-6-6-6-6-6-4----4----4----|


  S S S S S S S S S S S S S S S S  
----------------------------------|
----------------------------------|
----------------------------------|
----------------------------------|
--8-------------------------------|
--6-6-6-6-6-6-6-6-6-6-6-6-6-6-6-6-|


  |---3---|  |---3---|  |---3---|          
  E   E   E  E   E   E  E   E   E    Q     
------------------------------------------|
------------------------------------------|
------------------------------------------|
-----------------------------------<>6----|
--8h--9p--8--6h--8p--6--4h--6p--4---------|
------------------------------------------|


                                                     |----3----|     
  S S S S S S S S S S S S S S S S    S S S S S S S S Q    Q    Q     
----------------------------------|---------------------------------|
----------------------------------|---------------------------------|
----------------------------------|---------------------------------|
----------------------------------|---------------------------------|
--8-------------------------------|------------------6----6----6----|
--6-6-6-6-6-6-6-6-6-6-6-6-6-6-6-6-|--6-6-6-6-6-6-6-6-4----4----4----|


  S S S S S S S S S S S S S S S S  
----------------------------------|
----------------------------------|
----------------------------------|
----------------------------------|
--8-------------------------------|
--6-6-6-6-6-6-6-6-6-6-6-6-6-6-6-6-|


  |---3---|  |---3---|  |---3---|          
  E   E   E  E   E   E  E   E   E    Q     
------------------------------------------|
------------------------------------------|
------------------------------------------|
-----------------------------------<>6----|
--8h--9p--8--6h--8p--6--4h--6p--4---------|
------------------------------------------|


                                                     |----3----|     
  S S S S S S S S S S S S S S S S    S S S S S S S S Q    Q    Q     
----------------------------------|---------------------------------|
----------------------------------|---------------------------------|
----------------------------------|---------------------------------|
----------------------------------|---------------------------------|
--8-------------------------------|------------------6----6----6----|
--6-6-6-6-6-6-6-6-6-6-6-6-6-6-6-6-|--6-6-6-6-6-6-6-6-4----4----4----|


  E  H.           E     E  E  E  E  E  E  E  E   
---------------------|--------------------------|
---------------------|--------------------------|
---------------------|--------------------------|
---------------------|--8--------5-----7--8-----|
--8------------------|--8--------5-----7--8-----|
--6------------------|--6--0--0--3--0--5--6--0--|


  E  E  E  E  E  E  E  E     E  E  E  E  E  E  E  E   
--------------------------|--------------------------|
--------------------------|--------------------------|
--------------------------|--------------------------|
-----5-----7-----8--7--5--|--8--------5-----7--8-----|
-----5-----7-----8--7--5--|--8--------5-----7--8-----|
--0--3--0--5--0--6--5--3--|--6--0--0--3--0--5--6--0--|


  E  E  E  E  E  E  E  E     E  E  E  E  E  E  E  E   
--------------------------|--------------------------|
--------------------------|--------------------------|
--------------------------|--------------------------|
-----5-----7-----8--7--5--|--8--------5-----7--8-----|
-----5-----7-----8--7--5--|--8--------5-----7--8-----|
--0--3--0--5--0--6--5--3--|--6--0--0--3--0--5--6--0--|


  E  E  E  E  E  E  E  E     E  E  E  E  E  E  E  E   
--------------------------|--------------------------|
--------------------------|--------------------------|
--------------------------|--------------------------|
-----5-----7-----8--7--5--|--8--------5-----7--8-----|
-----5-----7-----8--7--5--|--8--------5-----7--8-----|
--0--3--0--5--0--6--5--3--|--6--0--0--3--0--5--6--0--|


  E  E  E  E  E  E  E  E     E   E  E  E  E  E  E  E   
--------------------------|---------------------------|
--------------------------|---------------------------|
--------------------------|---------------------------|
-----5-----7-----8--7--5--|--8\-----------------------|
-----5-----7-----8--7--5--|--8\-----------------------|
--0--3--0--5--0--6--5--3--|--6\--0--0--0--0--0--0--0--|


  E  E  E  E  E  E  E  E     E  E  E   E   E   E   E  E   
--------------------------|------------------------------|
--------------------------|------------------------------|
--------------------------|------------------------------|
--------------------------|--8--7--7--11--11--10--10--8--|
--------------------------|--8--7--7--11--11--10--10--8--|
--0--0--0--0--0--0--0--0--|--6--5--5---9---9---8---8--6--|


  E  E  E   E   E   E   E  E     E   E  E  E  E  E  E  E   
------------------------------|---------------------------|
------------------------------|---------------------------|
------------------------------|---------------------------|
--8--7--7--11--11--10--10--8--|--8\-----------------------|
--8--7--7--11--11--10--10--8--|--8\-----------------------|
--6--5--5---9---9---8---8--6--|--6\--0--0--0--0--0--0--0--|


  E  E  E  E  E  E  E  E     E  E  E   E   E   E   E  E   
--------------------------|------------------------------|
--------------------------|------------------------------|
--------------------------|------------------------------|
--------------------------|--8--7--7--11--11--10--10--8--|
--------------------------|--8--7--7--11--11--10--10--8--|
--0--0--0--0--0--0--0--0--|--6--5--5---9---9---8---8--6--|


  E  E  E   E   E   E   E  E     E   E  E  E  E  E  E  E   
------------------------------|---------------------------|
------------------------------|---------------------------|
------------------------------|---------------------------|
--8--7--7--11--11--10--10--8--|--8\-----------------------|
--8--7--7--11--11--10--10--8--|--8\-----------------------|
--6--5--5---9---9---8---8--6--|--6\--0--0--0--0--0--0--0--|


  E  E  E  E  E  E  E  E     E  E  E   E   E   E   E  E   
--------------------------|------------------------------|
--------------------------|------------------------------|
--------------------------|------------------------------|
--------------------------|--8--7--7--11--11--10--10--8--|
--------------------------|--8--7--7--11--11--10--10--8--|
--0--0--0--0--0--0--0--0--|--6--5--5---9---9---8---8--6--|


  E  E  E   E   E   E   E  E     S S S S S S S S S S S S S S S S  
------------------------------|----------------------------------|
------------------------------|----------------------------------|
------------------------------|----------------------------------|
--8--7--7--11--11--10--10--8--|----------------------------------|
--8--7--7--11--11--10--10--8--|----------------------------------|
--6--5--5---9---9---8---8--6--|--6-6-5-5-5-5-9-9-9-9-8-8-8-8-6-6-|


  S S S S S S S S S S S S S S S S    E  Q    E  E  Q.      
----------------------------------|-----------------------|
----------------------------------|-----------------------|
----------------------------------|-----------------------|
----------------------------------|--3--3----3--3--3------|
----------------------------------|--1--1----1--1--1------|
--6-6-5-5-5-5-9-9-9-9-8-8-8-8-6-6-|-----------------------|


  |----3----|    |----3----|                             
  Q    Q    Q    Q    Q    Q       E  Q    E  E  Q.      
--------------------------------|-----------------------|
--------------------------------|-----------------------|
--------------------------------|-----------------------|
--6----8----6----9----8----6----|--3--3----3--3--3------|
--4----6----4----7----6----4----|--1--1----1--1--1------|
--4----6----4----7----6----4----|-----------------------|


  |----3----|    |----3----|                            
  Q    Q    Q    Q    Q    Q       E  Q.     E  Q.      
--------------------------------|----------------------|
--------------------------------|----------------------|
--------------------------------|------------6--6------|
--6----8----6----9----8----6----|--3--3------4--4------|
--4----6----4----7----6----4----|--1--1----------------|
--4----6----4----7----6----4----|----------------------|


  E  Q.     E  Q.        E  Q    E  E  Q.      
----------------------|-----------------------|
----------------------|-----------------------|
----------------------|-----------------------|
--6--6----------------|--3--3----3--3--3------|
--4--4------6--6------|--1--1----1--1--1------|
------------4--4------|-----------------------|


  |----3----|    |----3----|                             
  Q    Q    Q    Q    Q    Q       E  Q    E  E  Q.      
--------------------------------|-----------------------|
--------------------------------|-----------------------|
--------------------------------|-----------------------|
--6----8----6----9----8----6----|--3--3----3--3--3------|
--4----6----4----7----6----4----|--1--1----1--1--1------|
--4----6----4----7----6----4----|-----------------------|


  |----3----|    |----3----|                 |----3----|     
  Q    Q    Q    Q    Q    Q       E  Q.     Q    Q    Q     
--------------------------------|---------------------------|
--------------------------------|---------------------------|
--------------------------------|---------------------------|
--6----8----6----9----8----6----|--3--3------4----4----4----|
--4----6----4----7----6----4----|--1--1---------------------|
--4----6----4----7----6----4----|--1--1---------------------|


  |----3----|    |----3----|                           
  Q    Q    Q    Q    Q    Q       W                   
--------------------------------|---------------------|
--------------------------------|---------------------|
--------------------------------|---------------------|
--6----6----6----9----9----9----|--8br----------------|
--------------------------------|---------------------|
--------------------------------|---------------------|


           |----3----|                           
  H        Q    Q    Q       Q    H.             
--------------------------|--------------------||
--------------------------|--------------------||
--------------------------|--------------------||
--L-----------------------|--------------------||
-----------6----6----6----|--8-----------------||
-----------4----4----4----|--6-----------------||




Duration Legend
---------------
W - whole
H - half
Q - quarter
E - 8th
S - 16th
T - 32nd
X - 64th
. - note dotted
|-n-|  - n-tuplets


Tablature Legend
----------------
L - tied note
x - dead note
g - grace note
(n) - ghost note
> - accentuded note
NH - natural harmonic
AH - artificial harmonic
TH - tapped harmonic
SH - semi harmonic
PH - pitch harmonic
h - hammer on
p - pull off
b - bend
br - bendRelease
pb - preBend
pbr - preBendRelease
brb - bendReleaseBend
\n/ - tremolo bar dip
\n - tremolo bar dive
-/n - tremolo bar Release up
/n\ - tremolo bar inverted dip
/n - tremolo bar return
-\n - tremolo bar Release down
S - shift slide
s - legato slide
/ -  slide into from below or out of upwards
\ -  slide into from above or out of downwards
~ - vibrato
W - wide vibrato
tr - trill
TP - tremolo picking
T - tapping
S - slap
P - pop
< - fade in
^ - brush up
v - brush down

            
            
Suggest correction
Creating personal tab
Creating personal tab
You can edit any tab online and save it as your Personal.

You can edit, replace or remove any tab part or add personal notes – all changes will be seen only by you.

Personal tabs can be accessed anytime from any device, even offline.
Learn more »
comments
print report bad tab
guest
You may want to rate the tab now too:
select rating
Wanna post a correction for this tab? Suggest correction