Oops, an error
Loading. Please wait.

Terror Shark tab

version 2
version 2

Whole song

Interactive

154 views 1 this week
no commentswrite comment
1 2 3 4 5
3 more votes to show rating
add to favorites
×
Save as Personal and add changes to this tab that will be seen only by you. Learn more ›
×
You can save this tab as Personal to edit and correct it or add notes. All changes will be seen only by you. Learn more »
launch autoscroll
font size
0
reset
how to read this tab
guitar tuner
edit
Autoscroll
slow
fast
+/-
esc
set tempo
stop
Author
Tabbers playing skills
advanced
Municipal Waste - Terror Shark
Hazardous Mutation (2005)
Tabbed by ruker
Standard Tuning EADGBE

--------------
Key:
--------------
.  Palm Mute
ph Pinch Harmonic
~  Vibrato
--------------


Verse (0:00)
 Rhythm Guitars (Left & Right)
||-------------------------------------------------------------------|
||*------------------------------------------------------------------|
||-------------------------------------------------------------------|
||----8---7-----------------------------------------3----------------|
||*-5-------5-5555555-8---7-5-7---8-1-11111-3-11111---11111-3-11111--|
||-------------------------------------------------------------------|
              ......                  .....   .....   .....   .....

|--------------------------------------------------------------------||
|-------------------------------------------------------------------*||
|--------------------------------------------------------------------||
|---8---7------------------------------------------3-----------------||
|-5-------5-5555555-7---8-10-8---7-1-11111-3-11111---11111-3-11111--*||
|--------------------------------------------------------------------||
            ......                   .....   .....   .....   .....

Chorus (0:18)
||---------------------------------------------------------------------||
||*-------------------------------------------------------------------*||
||---------------------------------------------------------------------||
||--7-7---7-7-10---9-3-3---3-3-3---3-5-5---5-5-10---9-7--7--0--7-------||
||*-5-5---5-5-8----7-1-1---1-1-1---1-3-3---3-3-8----7-5--5--0--5------*||
||---------------------------------------------------------------------||


Pre-Bridge (0:27)
||--------------------------|
||--------------------------|
||--------------------------|
||-12-121212-10-101010-9-99-|
||-10-101010-8--8-8-8--7-77-|
||--------------------------|
      . . .     . . .    ..

Bridge (0:29)
||---------------------------------------------------------------------|
||---------------------------------------------------------------------|
||---------------------------------------------------------------------|
||-8---8-888-888-888-888-10---8---10-7---7-777-777-777-777-10---8-8888-|
||-6---6-666-666-666-666-8--006-008--5---5-555-555-555-555-8--006-6666-|
||---------------------------------------------------------------------|
       . ... ... ... ...    ..  ..       . ... ... ... ...    ..  ....

|----------------------------------------------------------------------|
|*--------------------------------------------------------------------*|
|----------------------------------------------------------------------|
|--8---8-888-888-888-888-10---8---10-7---7-777-777-777-777-------------|
|*-6---6-666-666-666-666-8--006-008--5---5-555-555-555-555-8---7---7--*|
|----------------------------------------------------------ph--ph------|
       . ... ... ... ...    ..  ..       . ... ... ... ...

|------------------------------------|
|------------------------------------|
|------------------------------------|
|-8---8-888-888-888-888-10---8---10--|
|-6---6-666-666-666-666-8--006-008---|
|------------------------------------|
      . ... ... ... ...    ..  ..

Chorus (0:49)
||---------------------------------------------------------------------|
||*-------------------------------------------------------------------*|
||---------------------------------------------------------------------|
||--7-7---7-7-10---9-3-3---3-3-3---3-5-5---5-5-10---9-7--7--0--7-------|
||*-5-5---5-5-8----7-1-1---1-1-1---1-3-3---3-3-8----7-5--5--0--5------*|
||---------------------------------------------------------------------|


|------------------------------------------||
|------------------------------------------||
|------------------------------------------||
|-9-7--7--0--7-----------------------------||
|-7-5--5--0--5-----------------------------||
|------------------------------------------||


Verse (1:02)
||------------------------------------------------------------------|
||------------------------------------------------------------------|
||------------------------------------------------------------------|
||---8---7-----------------------------------------3----------------|
||-5-------5-5555555-8---7-5-7---8-1-11111-3-11111---11111-3-11111--|
||------------------------------------------------------------------|
             ......                  .....   .....   .....   .....

|-------------------------------------------------------------------||
|-------------------------------------------------------------------||
|-------------------------------------------------------------------||
|---8---7------------------------------------------3----------------||
|-5-------5-5555555-7---8-10-8---7-1-11111-3-11111---11111-3-11111--||
|-------------------------------------------------------------------||
            ......                   .....   .....   .....   .....

Guitar Lead (1:11)
 Left Lead Guitar
||--------------------------------------------------------------------||
||*-----------8---8-108---8------------------------------------------*||
||--7-9-109-10--10------10----109---7-9-109---7-5---7-----------5-----||
||--------------------------------------------------ph----------------||
||*------------------------------------------------------------------*||
||--------------------------------------------------------------------||
|                                                                      |
|Right Lead Guitar                                                     |
||--------------------------------------------------------------------||
||*------------------------------------------------------------------*||
||--------------------------------------------------------------------||
||------------5---5-7-5---5-------------------------------------------||
||*-5-7-8-7-8---8-------8-----8-7---5-7-8-7---5-3---5-----------3----*||
||--------------------------------------------------ph----------------||
|                                                                      |
|Rhythm Guitars                                                        |
||--------------------------------------------------------------------||
||*------------------------------------------------------------------*||
||--------------------------------------------------------------------||
||--7-7-7-7-7-1010103-3-3-3-3-3-3-3-5-5-5-5-5-1010107-7-7-7-7---5-----||
||*-5-5-5-5-5-8-8-8-1-1-1-1-1-1-1-1-3-3-3-3-3-8-8-8-5-5-5-5-5---3----*||
||--------------------------------------------------------------------||
    . . . . . . . . . . . . . . . . . . . . . . . . . . . . .   .

Bass Lead (1:20)
 Bass
||------------------------------------------------------------------|
||-1212121212151514--------------------1415141512--1212121212-------|
||-----------------13131313131313131515----------15------------15---|
||------------------------------------------------------------------|
|                                                                   |
|Rhythm Guitars                                                     |
||------------------------------------------------------------------|
||------------------------------------------------------------------|
||------------------------------------------------------------------|
||-7-7-7-7-7-1010103-3-3-3-3-3-3-3-5-5-5-5-5-1010107-7-7-7-7---5----|
||-5-5-5-5-5-8-8-8-1-1-1-1-1-1-1-1-3-3-3-3-3-8-8-8-5-5-5-5-5---3----|
||------------------------------------------------------------------|
   . . . . . . . . . . . . . . . . . . . . . . . . . . . . .   .

|------------------------------------------------------------------|
|-1212121212151514--------------------1415141512--1212121212-------|
|-----------------13131313131313131515----------15-----------------|
|------------------------------------------------------------------|
|                                                                  |
|                                                                  |
|------------------------------------------------------------------|
|------------------------------------------------------------------|
|------------------------------------------------------------------|
|-7-7-7-7-7-1010103-3-3-3-3-3-3-3-5-5-5-5-5-1010107-7-7-7-7--------|
|-5-5-5-5-5-8-8-8-1-1-1-1-1-1-1-1-3-3-3-3-3-8-8-8-5-5-5-5-5--------|
|------------------------------------------------------------------|
  . . . . . . . . . . . . . . . . . . . . . . . . . . . . .

Outro (1:30)
 Left Lead Guitar
||--------------------------------------------------------------------|
||-------------------------10--8--------------------------------------|
||---------------------------------10---------------9--------10-------|
||--------------------------------------------------------------------|
||--------------------------------------------------------------------|
||--------------------------------------------------------------------|
|                                                                     |
|Right Lead Guitar                                                    |
||--------------------------------------------------------------------|
||--------------------------------------------------------------------|
||--------------------------------------------------------------------|
||-------------------------7---5--------------------------------------|
||---------------------------------8----------------7--------8--------|
||--------------------------------------------------------------------|
|                                                                     |
|Rhythm Guitars                                                       |
||--------------------------------------------------------------------|
||--------------------------------------------------------------------|
||--------------------------------------------------------------------|
||-3-3---3-3-3---3-5-5---5-10--9---7--7--7--7---5---7--7--7--7---5----|
||-1-1---1-1-1---1-3-3---3-8---7---5--5--5--5---3---5--5--5--5---3----|
||--------------------------------------------------------------------|


|----------------------------------------------------------------------------------------------||
|----------------------------------------------------------------------------------------------||
|--7--------------9---------------10~----------------------------------------------------------||
|----------------------------------------------------------------------------------------------||
|----------------------------------------------------------------------------------------------||
|----------------------------------------------------------------------------------------------||
|                                                                                               |
|                                                                                               |
|----------------------------------------------------------------------------------------------||
|----------------------------------------------------------------------------------------------||
|----------------------------------------------------------------------------------------------||
|----------------------------------------------------------------------------------------------||
|-5---------------7---------------8~-----------------------------------------------------------||
|----------------------------------------------------------------------------------------------||
|                                                                                               |
|                                                                                               |
|----------------------------------------------------------------------------------------------||
|----------------------------------------------------------------------------------------------||
|----------------------------------------------------------------------------------------------||
|-333333333333333355555555555555557--7--7--7---5---7--7--7--7---5----------------7--7--0--7----||
|-111111111111111133333333333333335--5--5--5---3---5--5--5--5---3----------------5--5--0--5----||
|----------------------------------------------------------------------------------------------||
Suggest correction
Creating personal tab
Creating personal tab
You can edit any tab online and save it as your Personal.

You can edit, replace or remove any tab part or add personal notes – all changes will be seen only by you.

Personal tabs can be accessed anytime from any device, even offline.
Learn more »
Give kudos to tab author, rate the tab!
1 2 3 4 5
comments
print report bad tab
guest
You may want to rate the tab now too:
select rating
Wanna post a correction for this tab? Suggest correction