Oops, an error
Loading. Please wait.

Unleash The Bastards bass

version 1
version 1

Whole song

Interactive

8,551 views 3 this week
2 commentsread comments
1 2 3 4 5
1 last vote to show rating
add to favorites
×
Save as Personal and add changes to this tab that will be seen only by you. Learn more ›
×
You can save this tab as Personal to edit and correct it or add notes. All changes will be seen only by you. Learn more »
launch autoscroll
font size
0
reset
guitar tuner
edit
Autoscroll
slow
fast
+/-
esc
set tempo
stop
Author
Difficulty
Bass



     W                   W                   E  Q    E  Q    Q     
G||-------------------|-------------------|-----------------------|
D||-------------------|-------------------|-----------------------|
A||-------------------|-------------------|--3--5----3--2----5----|
E||-------------------|-------------------|-----------------------|


  W                   E  Q    E  Q    Q         E  Q    E  Q    E  E   
-------------------|-----------------------||-------------------------|
-------------------|-----------------------||*------------------------|
--7----------------|--3--5----3--2----5----||*--7--7----5--7----------|
-------------------|-----------------------||-------------------0--0--|


  E  Q    E   Q    Q       E  Q    E  Q    E  E     E  Q    E  Q    Q       
------------------------|------------------------|------------------------||
------------------------|------------------------|------------------0----*||
--7--7----5--10----9----|--7--7----5--7----------|--3--5----3--2---------*||
------------------------|------------------0--0--|------------------------||


   E  Q    E  Q    E  E     E  Q    E   Q    Q       E  Q    E  Q    E  E   
-------------------------|------------------------|------------------------|
*------------------------|------------------------|------------------------|
*--7--7----5--7----------|--7--7----5--10----9----|--7--7----5--7----------|
-------------------0--0--|------------------------|------------------0--0--|


  E  Q    E  Q    Q         E  Q    E  Q    Q       E  E  E  E  E  E  E  E   
------------------------||-----------------------|--------------------------|
------------------0----*||------------------0----|--------------------------|
--3--5----3--2---------*||--3--5----3--2---------|--3--3--3--3--3--3--3--3--|
------------------------||-----------------------|--------------------------|


  |----3----|    |----3----|                         
  Q    Q    Q    Q    Q    Q       W                 
--------------------------------|-------------------|
--------------------------------|-------------------|
--5----3----2----3----2---------|-------------------|
---------------------------3----|--0----------------|


  |-----3----|     |-----3----|                                
  Q    Q     Q     Q     Q    Q       E  E  E  E  E  E  E  E   
-----------------------------------|--------------------------|
-----------------------------------|--------------------------|
--7----9----10----12----10----9----|--3--3--3--3--3--3--3--3--|
-----------------------------------|--------------------------|


  |----3----|    |----3----|                                             
  Q    Q    Q    Q    Q    Q       W                   W                 
--------------------------------|-------------------|-------------------|
--------------------------------|-------------------|-------------------|
--5----3----2----3----2---------|-------------------|-------------------|
---------------------------3----|--0----------------|--L----------------|


                             |----3----|    |----3----|                         
  E  E  E  E  E  E  E  E     Q    Q    Q    Q    Q    Q       W                 
--------------------------|--------------------------------|-------------------|
--------------------------|--------------------------------|-------------------|
--3--3--3--3--3--3--3--3--|--5----3----2----3----2---------|-------------------|
--------------------------|---------------------------3----|--0----------------|


  |-----3----|     |-----3----|                                
  Q    Q     Q     Q     Q    Q       E  E  E  E  E  E  E  E   
-----------------------------------|--------------------------|
-----------------------------------|--------------------------|
--7----9----10----12----10----9----|--3--3--3--3--3--3--3--3--|
-----------------------------------|--------------------------|


  |----3----|    |----3----|                                             
  Q    Q    Q    Q    Q    Q       W                   W                 
--------------------------------|-------------------|-------------------|
--------------------------------|-------------------|-------------------|
--5----3----2----3----2---------|-------------------|-------------------|
---------------------------3----|--0----------------|--0----------------|


  E  Q    E  Q    E  E     E  Q    E   Q    Q       E  Q    E  Q    E  E   
------------------------|------------------------|------------------------|
------------------------|------------------------|------------------------|
--7--7----5--7----------|--7--7----5--10----9----|--7--7----5--7----------|
------------------0--0--|------------------------|------------------0--0--|


  E  Q    E  Q    Q       E  Q    E  Q    E  E     E  Q    E   Q    Q     
-----------------------|------------------------|------------------------|
------------------0----|------------------------|------------------------|
--3--5----3--2---------|--7--7----5--7----------|--7--7----5--10----9----|
-----------------------|------------------0--0--|------------------------|


  E  Q    E  Q    E  E     E  Q    E  Q    Q       E  E  E  E  E  E  E  E   
------------------------|-----------------------|--------------------------|
------------------------|------------------0----|--------------------------|
--7--7----5--7----------|--3--5----3--2---------|--7--7--7--7--7--7--7--7--|
------------------0--0--|-----------------------|--------------------------|


  E  E  E  E  E  E  E  E     E  E  E  E  E  E  E  E   
--------------------------|--------------------------|
--------------------------|--------------------------|
--7--7--7--7--3-----8--7--|--------------------------|
-----------------0--------|--0--0--0--0--0--0--0--0--|


  E   E  E  E  E  E  Q       E  E  E  E  E  E  E  E   
--------------------------|--------------------------|
--------------------------|--------------------------|
-----10--9--7--9--7--5----|--7--7--7--7--7--7--7--7--|
--0-----------------------|--------------------------|


  E  E  E  E  E  E  E  E     E  E  E  E  E  E  E  E   
--------------------------|--------------------------|
--------------------------|--------------------------|
--7--7--7--7--3-----8--7--|--------------------------|
-----------------0--------|--0--0--0--0--0--0--0--0--|


  E   E  E  E  E  E  Q       W                   W                 
--------------------------|-------------------|-------------------|
--------------------------|-------------------|-------------------|
-----10--9--7--9--7--5----|-------------------|-------------------|
--0-----------------------|-------------------|-------------------|


  E  E  E  E  E  E  E  E     E  E  E  E  E  E  Q       E  E  E  E  E  E  E  E   
--------------------------|-------------------------|--------------------------|
--------------------------|-------------------------|--------------------------|
--3--3--3--3--3--3--3--3--|--3--5--3--2--2--3--5----|--7--7--7--7--7--7--7--7--|
--------------------------|-------------------------|--------------------------|


  E  E  E  E  E  E  Q       E  E  E  E  E  E  E  E     E  E  E  E  E  E  Q     
-------------------------|--------------------------|-------------------------|
-------------------------|--------------------------|-------------------------|
--7--8--7--5--5--7--8----|--3--3--3--3--3--3--3--3--|--3--5--3--2--2--3--5----|
-------------------------|--------------------------|-------------------------|


    Q    E  Q    Q    E     E  Q    Q    Q    E     E  E  E  E  E  E  E  E   
|------------------------|-----------------------|--------------------------|
|*-----------------------|-----------------------|-----------5-----4--------|
|*----------7----5----3--|--L--2-----------------|--3--3--3-----3-----3--3--|
|---0----0---------------|----------3----2----L--|--------------------------|


  E  E  E  E  E  E  E  E        E  E  E  E  E  E  E  E   
---------------------------||---------------------------|
-----7--L--5--L--4--L--L--*||*--------------------------|
--5-----------------------*||*--------------------------|
---------------------------||---0--0--0--0--0--0--0--0--|


  E  E  E  E  E  E  E  E     E  E  E  E  E  E  E  E   
--------------------------|--------------------------|
--------------------------|--------------------------|
-----------3-----5-----8--|--7-----------------------|
--0--0--0-----0-----0-----|-----0--0--0--0--0--0--0--|


  E   E  E  E  E  E  Q          E  E  E  E  E  E  E  E   
---------------------------||---------------------------|
--------------------------*||*--------------------------|
-----10--9--7--9--7--5----*||*--------------------------|
--0------------------------||---0--0--0--0--0--0--0--0--|


  E  E  E  E  E  E  E  E     E  E  E  E  E  E  E  E   
--------------------------|--------------------------|
--------------------------|--------------------------|
-----------3-----5-----8--|--7-----------------------|
--0--0--0-----0-----0-----|-----0--0--0--0--0--0--0--|


  E   E  E  E  E  E  Q         E  E  E  E  E  E  E  E   
---------------------------||--------------------------|
--------------------------*||--------------------------|
-----10--9--7--9--7--5----*||--3--3--3--3--3--3--3--3--|
--0------------------------||--------------------------|


  |----3----|    |----3----|                         
  Q    Q    Q    Q    Q    Q       W                 
--------------------------------|-------------------|
--------------------------------|-------------------|
--5----3----2----3----2---------|-------------------|
---------------------------3----|--0----------------|


  |-----3----|     |-----3----|                                
  Q    Q     Q     Q     Q    Q       E  E  E  E  E  E  E  E   
-----------------------------------|--------------------------|
-----------------------------------|--------------------------|
--7----9----10----12----10----9----|--3--3--3--3--3--3--3--3--|
-----------------------------------|--------------------------|


  |----3----|    |----3----|                                             
  Q    Q    Q    Q    Q    Q       W                   W                 
--------------------------------|-------------------|-------------------|
--------------------------------|-------------------|-------------------|
--5----3----2----3----2---------|-------------------|-------------------|
---------------------------3----|--0----------------|--L----------------|


                             |----3----|    |----3----|                         
  E  E  E  E  E  E  E  E     Q    Q    Q    Q    Q    Q       W                 
--------------------------|--------------------------------|-------------------|
--------------------------|--------------------------------|-------------------|
--3--3--3--3--3--3--3--3--|--5----3----2----3----2---------|-------------------|
--------------------------|---------------------------3----|--0----------------|


  |-----3----|     |-----3----|                                
  Q    Q     Q     Q     Q    Q       E  E  E  E  E  E  E  E   
-----------------------------------|--------------------------|
-----------------------------------|--------------------------|
--7----9----10----12----10----9----|--3--3--3--3--3--3--3--3--|
-----------------------------------|--------------------------|


  |----3----|    |----3----|                                                 
  Q    Q    Q    Q    Q    Q       W                   E  Q    E  Q    Q     
--------------------------------|-------------------|-----------------------|
--------------------------------|-------------------|-----------------------|
--5----3----2----3----2---------|-------------------|--3--5----3--2----5----|
---------------------------3----|--0----------------|-----------------------|


  E  E  H.             
---------------------||
---------------------||
--7------------------||
---------------------||

            
            
Suggest correction
Creating personal tab
Creating personal tab
You can edit any tab online and save it as your Personal.

You can edit, replace or remove any tab part or add personal notes – all changes will be seen only by you.

Personal tabs can be accessed anytime from any device, even offline.
Learn more »
Give kudos to tab author, rate the tab!
1 2 3 4 5
comments
print report bad tab
2 comments total.
+2 reply
mr freezy 40 Sep 21, 2007 09:40 AM

Please tab out more waste bass i really need it.

0 reply
bassplayer18A7X 111 Jun 15, 2009 04:37 PM

dude, perfect tab

guest
You may want to rate the tab now too:
select rating
Wanna post a correction for this tab? Suggest correction