Oops, an error
Loading. Please wait.

End Of The Line Tab

1,595 views 6 this week
1 commentread comment
1 2 3 4 5
please rate
add to favorites
launch autoscroll
font size
0
reset
how to read this tab
guitar tuner
Tab Pro tools
  • play this tab
  • loop segment
  • change instrument
  • show fretboard
  • metronome
×
Best way to learn
"End Of The Line"
Autoscroll
slow
fast
+/-
esc
set tempo
stop
Contributor
Difficulty
novice
-------------------------------------------------------------------------------
                     END OF THE LINE - Murder By Death
-------------------------------------------------------------------------------
Tabbed by: tpb_rocpile
Email: tpb_rocpile@yahoo.com

Tuning: Standard

I know this isn't much, but i cant find many Murder by Death tabs out there so
I thought I'd give it a go.  This is just gonna be a few basic chords that
are played throughout the whole song.  Hopefully there will be more Murder By
Death tabs from me in the near future.

Intro

    Bm                      G
e|---------------------------------------------------|
B|------------3------------------------0-------------|
G|-------4------4---4----0-------0-------0----0---0--|
D|---------------------------------------------------|
A|--2--2---2------2---0------------------------------|
E|--------------------------3--3----3-------3---2----|


    Em                     F#
e|--------------0------------------------------------|
B|--------------0--0----------------3------3-3-------|
G|------------------------------4-----4----4-4-------|
D|--------2--------------2-----------------4-4-------|
A|---------------------------------------------------|
E|--0--0-----0--------0----2--2---2-----2------------|



   //Most of the rest of the song follows the same basic 
     chord progression:
 
          Bm - G - Em - F#

************************************

| /   slide up
| \   slide down
| h   hammer-on
| p   pull-off
| ~   vibrato
| +   harmonic
| x   Mute note
| b   Bend
| pb  Pre-bend
| br  Bend release
| pbr Pre-bend release
| brb Bend release bend

************************************
comments
We did not receive enough feedback on this tab! Please rate:
print report bad tab
1 2 3 4 5
1 comment total.
0 reply
rainbowcabinet wrote on November 20 2010, 03:11 pm

chorus:

em bm gb
em bm g gb bm

I want to post or [tab]
guest
You may want to rate the tab now too:
select rating
Please do not post tabs as comments. Select "correction" instead!