Oops, an error
Loading. Please wait.

Intergalactic Menopause Tab

version 1
version 1

Whole song

615 views 3 this week
no commentswrite comment
1 2 3 4 5
please rate
add to favorites
launch autoscroll
font size
0
reset
how to read this tab
guitar tuner
Autoscroll
slow
fast
+/-
esc
set tempo
stop
Help us to improve Ultimate-Guitar.com Take our survey!
×
Author
-------------------------------------------------------------------------------
                 Intergalactic Menopause - Murder By Death
-------------------------------------------------------------------------------
Tabbed by: Jim Cosgrave
Email: tpb_rocpile@yahoo.com
 
Tuning: Standard

Chords:   
    A    B    E    Dmaj7   (Not quite sure Dmaj7 is the right name but thats
e|-----------------------|  what it will be called throughout the tab)
B|-----------------------|
G|------------9----6-----|
D|--7----9----9----7-----|
A|--7----9----7----5-----|
E|--5----7---------------|


Intro goes something like this.  This isnt exact but just mess with these
notes and you'll get it.  Theres also another tab for this song that has a
more detailed intro.

e|---------------------------------------------------|
B|---------------------------------------------------|
G|---------------------------------------------------|
D|---------------------------------------------------|
A|-0-4-0---0-4-0---0-4-0---0-4-0---7--7--5-4s5-4-0---|
E|---------------------------------------------------|

1:17

e|------0---------------|
B|--2h3---3-2-0-2-0-----|
G|------------------2---|
D|----------------------| x 7
A|----------------------|
E|----------------------|

1:28 

e|------0---------------|
B|--2h3---3-2-0-2-0-----|
G|------------------2-2-|
D|----------------------| x 1
A|----------------------|
E|----------------------|


1:33

A       B          E   Dmaj7 Dmaj7   E           A     
We were drunk, and carsick   when we rolled into town.

A       B     E         Dmaj7  Dmaj7        E   A
Pulling up to the drive in     there Was no one around.

A        B      E     Dmaj7       Dmaj7           E               A
When the lights unfolded from the sky we were the only ones to be found.

          A     B  E          Dmaj7 Dmaj7        E           A
They were soaring through the sky,       we were left on the ground.




2:32

e|-17-------16--12---14---------7---9br--9---------------------|
B|---------------------------------------------10--------10----|
G|-------------------------------------------------------------|
D|-------------------------------------------------------------|
A|-------------------------------------------------------------|
E|-------------------------------------------------------------|

2:46

e|-17-------16--12---14---------7---9br--9---------------------|
B|---------------------------------------------12----10--10----|
G|-------------------------------------------------------------|
D|-------------------------------------------------------------|
A|-------------------------------------------------------------|
E|-------------------------------------------------------------|



3:00

A                              B                           E                 Dmaj7
Sitting in the living room the dog is catching caramel corn, I never wanted a change

         A                 B                  E               Dmaj7    
Brushing teeth and combing hair, i guess they do this everywhere

A                         B    E                   Dmaj7    
I think its time for a change,   i never wanted a change.

A           B          A
I guess its time for a change...




3:30

e|---9h10p9-----7----9h10-9h10------7------|
B|----------10-----------------10----------|
G|-----------------------------------------|
D|-----------------------------------------|
A|-----------------------------------------|
E|-----------------------------------------|




***********************************************************************
I know its not the greatest tab, especially the chord protion of it but
I did my best.  I havent seen a tab for this song for a couple of years
now so at least now you have something to go off of :) E-mail me with 
any improvements you come up with.

| /   slide up
| \   slide down
| h   hammer-on
| p   pull-off
| ~   vibrato
| +   harmonic
| x   Mute note
| b   Bend
| pb  Pre-bend
| br  Bend release
| pbr Pre-bend release
| brb Bend release bend

************************************
Suggest correction
What's this?
You can suggest a correction to this tab. Community and Mods will review your correction and vote to approve or reject it.
comments
We did not receive enough feedback on this tab! Please rate:
print report bad tab
1 2 3 4 5
guest
You may want to rate the tab now too:
select rating
Please do not post tabs as comments. Select "correction" instead!