Oops, an error
Loading. Please wait.

It Will Never Die chords

127 views 3 this week
no commentswrite comment
1 2 3 4 5
x 3
add to favorites
×
Save as Personal and add changes to this tab that will be seen only by you. Learn more ›
×
You can save this tab as Personal to edit and correct it or add notes. All changes will be seen only by you. Learn more »
launch autoscroll
font size
0
reset
transpose
0
reset
display chords
guitar tuner
edit
Autoscroll
slow
fast
+/-
esc
set tempo
stop
Strumming
There is no strumming pattern for this song yet. and get +5 IQ
SONG:   IT WILL NEVER DIE
ARTIST: MURDER BY DEATH
VIDEO:  https://youtu.be/NM8hrHsXTuo
TAB BY: DON CZARSKI
EMAIL:  GUITARZAN7@HOTMAIL.COM


                IT WILL NEVER DIE
                 MURDER BY DEATH

INTRO:
   Bm      Em        G     Bm     Em      G
E  ----------------------|---------------------|
B  ----------------------|----------------3----|
G  -2-4-2-0---0----0---0-|-2-4-2-0---0--2---4--|
D  ---------2----2---0---|---------2-----------|
A  ----------------------|---------------------|
E  ----------------------|---------------------|

   Bm       Em                   G         Bm
E  -------------------------------------------|
B  -------------------------------------------|
G  -2-4-2-0---0----0---0---0-----0------------|
D  ---------2----2---2---2---2/4--------------|
A  ---------------------------------5\3-2-0-2-|
E  -------------------------------------------|


CHORUS:
Bm            Em    G
It will never die,  no
Bm            Em        G   
It will never die, no-o-o-o
Bm             Em
It will never die
       G       Em  Bm
It can only go on more


INSTRUMENTAL:
Bm  C  D
Bm  C  D
Bm  C  D  G


VERSE:
 G          C          D
I've never felt so...alone
          Em                        D
With the stars pressing down from above
        C          D
It's a feeling of terror
            G               D
But there's also beauty in that

       Em  G     C  Am    C   Am
I can shou-ou-ou-ou-out, cry out
 D      Am
Aahh ah out


VERSE:
G           C   C D
It sounds small
         Em                   D
There's nothing out there at all
          Em   G
The echo riiiiiings
     Em                D   D
And disappears in the deep

     C          D
I'm out like a light
 Em                  D
Swallowed up in the night
      C         D
The dreams are dark
Em                   D
  The landscape is stark

                Em            D
The hills flash red from the fire
       Em                  D
Of the occasional passing car
                Em      D
It flickers and fa-a-a-ades

           Em             D
The brush rustles in the wind

       Em  G     C  Am    C   Am
I can shou-ou-ou-ou-out, cry out
 D      Am
Aahh ah out


BREAK:
         Em        F#m
But the sun, the horizon, 
            G             F#m
The flames licking at the sky

         Em        F#m
And the dark all around me
       G              F#m
Bugs writhing in the light

        C      Am
Shining on my glen 
   C               D
As I continue to write

    Em                  F#m     G      F#m
And every sound is like thunder,  amplified
     C                 Am
And every minute gets longer
C            G          D
  Whether I like it or not


INSTRUMENTAL:
C  D  Em  D G 
C  D  Em  D G 
C  D  Em  D G 
C  D  Em  D G 
C  D  Em  Bm


   Bm      Em        G     Bm     Em      G
E  ----------------------|---------------------|
B  ----------------------|----------------3----|
G  -2-4-2-0---0----0---0-|-2-4-2-0---0--2---4--|
D  ---------2----2---0---|---------2-----------|
A  ----------------------|---------------------|
E  ----------------------|---------------------|

   Bm       Em                   G         Bm
E  -------------------------------------------|
B  -------------------------------------------|
G  -2-4-2-0---0----0---0---0-----0------------|
D  ---------2----2---2---2---2/4--------------|
A  ---------------------------------5\3-2-0-2-|
E  -------------------------------------------|


CHORUS:
Bm            Em    G
It will never die,  no
Bm            Em        G   
It will never die, no-o-o-o
Bm             Em
It will never die
       G      
It can only go on more


            
            
Suggest correction
Creating personal tab
Creating personal tab
You can edit any tab online and save it as your Personal.

You can edit, replace or remove any tab part or add personal notes – all changes will be seen only by you.

Personal tabs can be accessed anytime from any device, even offline.
Learn more »
Give kudos to tab author, rate the tab!
1 2 3 4 5
comments
print report bad tab
guest
You may want to rate the tab now too:
select rating
Wanna post a correction for this tab? Suggest correction