Oops, an error
Loading. Please wait.

Joe Bou Tab

263 views 1 this week
no commentswrite comment
1 2 3 4 5
please rate
add to favorites
launch autoscroll
font size
0
reset
how to read this tab
guitar tuner
Autoscroll
slow
fast
+/-
esc
set tempo
stop
Help us to improve Ultimate-Guitar.com Take our survey!
×
Author
Difficulty
novice
-------------------------------------------------------------------------------
                             Joe Bou  Murder by Death
-------------------------------------------------------------------------------


Tuning: Standard

Intro:
e|------------------------------------------------|
B|------------------------------------------------|
G|------------------------------------------------| x 4 end on Ab on 4th time
D|------------------------------------------------|
A|---3---3---3---3---3---3---3---3----------------|
E|-5---5---5---5---4---4---4---4------------------|

Verses:
e|--------------------------------------------------------------------------|
B|--------------------------------------------------------------------------|
G|--------5-----------5-------------5---------------------------------------|
D|------3---3-2-----3---3-2-------3---3-2------3-3-2------------------------|
A|----3-----------3-------------3------------3------------------------------|
E|--5-----------4-------------3------------0--------------------------------|

Between first and second verse
e|--------------------------------------------------------------------------|
B|--------------------------------------------------------------------------|
G|--------5-----------5-------------5------------5-------5------------------|
D|------3---3-2-----3---3-2-------3---3-2------3---3---3--------------------|
A|----3-----------3-------------3------------3-------3----------------------|
E|--5-----------4-------------3------------0--------------------------------|

Interlude and following verses
e|--------------------------------------------------------------------------|
B|--------------------------------------------------------------------------|
G|-------5-----5-------5----5-----5-----5-------5-------5-------------------|
D|-----3-----3-------3----3-----3-----3-------3---3---3---------------------|
A|---3-----3-------3----3-----3-----3-------3-------3-----------------------|
E|-5-------------4----------3-------------0---------------------------------|

Second guitar at 1:35 plays
e|--------------------------------------------------------------------------|
B|--------------------------------------------------------------------------|
G|-----5s7-10s9-------------------------------------------------------------|
D|--------------------------------------------------------------------------|
A|--------------------------------------------------------------------------|
E|--------------------------------------------------------------------------|

Second interlude
e|--------------------------------------------------------------------------|
B|--------------------------------------------------------------------------|
G|--------------------------------------------------------------------------|
D|--------------------------------------------------------------------------|
A|-3--s--5--s--7--5-7-8-7---------------------------------------------------|
E|--------------------------------------------------------------------------|

Rest of the song played with chords with emphasis on bass strings 
e|--------------------------------------------------------------------------|
B|--------------------------------------------------------------------------|
G|----5-----5----5----5-----------------------------------------------------|
D|----3-----3----3----3-----------------------------------------------------|
A|----3-----3----3----3-----------------------------------------------------|
E|----5-----4----3----0-----------------------------------------------------|

************************************

| /   slide up
| \   slide down
| h   hammer-on
| p   pull-off
| ~   vibrato
| +   harmonic
| x   Mute note
| b   Bend
| pb  Pre-bend
| br  Bend release
| pbr Pre-bend release
| brb Bend release bend

************************************


Suggest correction
What's this?
You can suggest a correction to this tab. Community and Mods will review your correction and vote to approve or reject it.
comments
We did not receive enough feedback on this tab! Please rate:
print report bad tab
1 2 3 4 5
guest
You may want to rate the tab now too:
select rating
Please do not post tabs as comments. Select "correction" instead!