Oops, an error
Loading. Please wait.

197666 Tab

version 3
version 3

Whole song

Interactive

6,099 views 3 this week
5 commentsread comments
1 2 3 4 5
excellent!
x 7
add to favorites
launch autoscroll
font size
0
reset
how to read this tab
guitar tuner
Autoscroll
slow
fast
+/-
esc
set tempo
stop
Help us to improve Ultimate-Guitar.com Take our survey!
×
Band:  Murderdolls
Album: Beyond The Valley of The Murderdolls
Song:  197666
 
Copyright ©
Version 1.0 – 20.03.2003
 
Transcribed By: Andreas Nore    
Email:      Nore666@hotmail.com
 
 
.  - palm mute           /  - slide up to   
\  - slide down to       ~  - vibrato
h  - hammer on           b  - Bend
p  - pull off            Suffixes for bend
t  - tap                 f  - full bend    h - half bend
ph - pinched harmonic    q  - quarter bend t - tap bend
*  - see comment         ^  - Hold bend    r release bend
x  - Stuccatto           ~  - vibrato bend
,  - slight palm mute    () - ghost note, sustained note
"  - tremolo note        <> - Trill
 
Tuning: E A D G B E
 
I do not know or hear a distinct difference between chorus and verse…
So I’m just going to write what there playing… As simple as that!
 
So enjoy…
 
 
Riff 1. Verse GTR I&II
|-------------------------------------------------------------------|
|-------------------------------------------------------------------|
|-------------------------------------------------------------------|
|-------------------------------------------------------------------|
|----7\-----7\------10---5------7-7-7-7-7-7-7-7--x\-----------------|
|--0-5\---0-5\-------8---3------5-5-5-5-5-5-5-5--x\-----------------|
   .      .
 
GTR I&II
Just Strum And Listen For Timing…
 
Riff 2a    GTR I & II        
|----------------------------|
|----------------------------|
|----------------------------| 
|----------------------------|
|----7----10----5-----7------|
|----5-----8----3-----5------|
 
Riff 2b GTR I
|--------------------------------------|   |---------------------|
|--------------------------------------|   |---------------------|
|*------------------------------------*|   |---------------------|
|*------------------------------------*|2x |---------------------|
|--7-7--7/10-10--7-7--7/10-10--7~------|   |--5-----5/10---7-----|
|--5-5--5/-8--8--5-5--5/-8--8--5~------|   |--3-----3/-8---5-----|
 
Riff 2b GTR II            
|--------------------------------------|   |---------------------|
|--------------------------------------|   |---------------------|
|*------------------------------------*|   |----------5----------|
|*-----7-7-10-10-7-7-10-10-7-7~-------*|2x |--5~----5----7~------|
|--------------------------------------|   |---------------------|
|--------------------------------------|   |---------------------|
Riff 3. 
|-------------------------------------------------------------------|
|-------------------------------------------------------------------|
|-------------------------------------------------------------------|
|-------------------------------------------------------------------|
|--7-7-7-7-7-7-7-7--10--7-7-7-7-7-7-7-7--10---5~-----5--7-----------|
|--5-5-5-5-5-5-5-5---8--5-5-5-5-5-5-5-5---8---3~-----3--5-----------|
 
 
 
Riff 1, Again, with GTR I.
 
GTR II on the other hand, plays this…
 
|--17 etc--17-----------------------------12-12---------------------|
|--17------17--17---------17--13---13-13--12-12--13-etc-------------|
|--------------17--14-14--16--12---12-12---------12-----------------|
|------------------14-14--------------------------------------------|
|--------------------------------------------------------x\---------|
|--------------------------------------------------------x\---------|


 
Riff 2a & b and riff 3 once more
 
And then solo:
 
It opens with a pick slide and rhythm under solo is Riff 2a 2x.
 
 
|------------------------------------------------------------------|
|------15-15-15-15-13-13-13---------15-15-15-15-13-13-13-----------|
|--14~----------------------14--12~-----------------------14-12-12-|
|------------------------------------------------------------------|
|------------------------------------------------------------------|
|------------------------------------------------------------------|
 
|------------------------------------------------------------------|
|-15-15-15-15-13-13-13---------------------------------------------|
|----------------------14-14-12-14-12-14~/-------------------------|
|------------------------------------------------------------------|
|------------------------------------------------------------------|
|------------------------------------------------------------------|
 
|---------20-17-------20-17-------20-17----------------------------|
|-/17-17--------20-17-------20-17-------20-17\---------------------|
|------------------------------------------------------------------|
|------------------------------------------------------------------|
|------------------------------------------------------------------|
|------------------------------------------------------------------|
 
|--------20-17-------20-17-------20-17-------20-20bf---20-20br-17~-|
|-/17-17-------20-17-------20-17-------20-17-----------------------|
|------------------------------------------------------------------|
|------------------------------------------------------------------|
|------------------------------------------------------------------|
|------------------------------------------------------------------|
 

End with Riff 2b and Riff 3 and then Riff 2b again and then it’s a final riff
on the end of Riff 2b:

 
|-----------------------------------------------------------------------|
|-----------------------------------------------------------------------|
|-----------------------------------------------------------------------|
|-----------------------------------------------------------------------|
|-------7-7---5--7\-----------------------------------------------------|
|-------5-5---3--5\-----------------------------------------------------|
               . .

As always I’m open for remarks… I would appreciate some response.
I’m also pretty sure this is 100% correct, but your opinion is taken notice to…
Suggest correction
comments
print report bad tab
5 comments total. Showing first comments.
0 reply
KoRnOnA6String 104 wrote on October 26 2005, 03:58 am

Thumbs Up

0 reply
Wasted-Youth 10 wrote on March 18 2006, 12:13 pm

word

0 reply
Im_a_basketcase 10 wrote on October 14 2006, 12:45 pm

awesome TAB, and good work on the solo 2

guest
You may want to rate the tab now too:
select rating
Please do not post tabs as comments. Select "correction" instead!