Oops, an error
Loading. Please wait.

A Moment Of Violence Bass Tab

140 views 3 this week
no commentswrite comment
1 2 3 4 5
excellent!
x 4
add to favorites
launch autoscroll
font size
0
reset
guitar tuner
Autoscroll
slow
fast
+/-
esc
set tempo
stop
Help us to improve Ultimate-Guitar.com Take our survey!
×
Contributor
Difficulty
AnduNeedle 6,417
novice
-----------------------------------------------------------------------------
                             A Moment Of Violence - Murderdolls
-----------------------------------------------------------------------------
Tabbed by: Andu Needle
E-mail: sulfur_in_my_lungs@yahoo.com

Intro:

G|------------------------------------------------------------------------|
D|------------------------------------------------------------------------|
A|------------------------------------------------------------------------|
E|-00-3-00-3-00-30-000----------------------------------------------------|(x3)


G|------------------------------------------------------------------------|
D|------------------------------------------------------------------------|
A|-----------00-----------------------------------------------------------|
E|-00-3-00-3----3-0-------------------------------------------------------|

Verse:

G|------------------------------------------------------------------------|
D|------------------------------------------------------------------------|
A|---------------------------------------------00-------------------------|
E|-00000000(x2)-00-3-00-3-00-30-000--00-3-00-3----3-0---------------------|(x2)

Chorus:

G|------------------------------------------------------------------------|
D|------------------------------------------------------------------------|
A|-0~-----------------0~-22222222-----------------------------------------|
E|----3-003-00-03-3-3-----------------------------------------------------|

Main riff again:

G|------------------------------------------------------------------------|
D|------------------------------------------------------------------------|
A|------------------------------------------------------------------------|
E|-00-3-00-3-00-30-000----------------------------------------------------|(x3)


G|------------------------------------------------------------------------|
D|------------------------------------------------------------------------|
A|-----------00-----------------------------------------------------------|
E|-00-3-00-3----3-0-------------------------------------------------------|

Verse 2 like the first one!
Chorus 2 like the first one!

Solo:

G|-------------------------------------------------------------------------|
D|-------------------------------------------------------------------------|
A|-------------------------------------------------------------------------|
E|-00-3-00-3-00-30-000-----------------------------------------------------|(x3)


G|-------------------------------------------------------------------------|
D|-------------------------------------------------------------------------|
A|-----------00------------------------------------------------------------|
E|-00-3-00-3----3-0--------------------------------------------------------|

Last chorus:

G|-------------------------------------------------------------------------|
D|-------------------------------------------------------------------------|
A|-0~-----------------0~-22222222-22222-1-0~------------------0-22222222---|
E|----3-003-00-03-3-3------------------------3-003-00-03-3-3---------------|

Ending:

G|-------------------------------------------------------------------------|
D|-------------------------------------------------------------------------|
A|-------------------------------------------------------------------------|
E|-00-3-00-3-00-30-000-----------------------------------------------------|(x3)


G|-------------------------------------------------------------------------|
D|-------------------------------------------------------------------------|
A|-----------00------------------------------------------------------------|
E|-00-3-00-3----3-0--------------------------------------------------------|
comments
print report bad tab
I want to post or [tab]
guest
You may want to rate the tab now too:
select rating
Please do not post tabs as comments. Select "correction" instead!