Oops, an error
Loading. Please wait.

A Moment Of Violence Tab

668 views 1 this week
no commentswrite comment
1 2 3 4 5
please rate
add to favorites
launch autoscroll
font size
0
reset
how to read this tab
guitar tuner
Tab Pro tools
  • play this tab
  • loop segment
  • change instrument
  • show fretboard
  • metronome
Autoscroll
slow
fast
+/-
esc
set tempo
stop
Contributor
Difficulty
Tuning
intermediate
D A D G B E
Tabbed By: Sheppy96
Email: msheppard96(at)googlemail(dot)com

Another Murderdolls song off the new album. Pretty damn easy. I guess you could play it 
in standard tuning, but it's easier in Drop D as you can just lay over the power chords 
(allowing you to headbang that little bit harder 'cos you haven't got to concentrate so hard).
Any corrections: SHUT THE F*CK UP! lol jks paste them in the comments. Cheers :)
PLEASE RATE, COMMENT, AND LOOK AT MY OTHER MURDERDOLLS TABS!!!

PS. Sorry if there are random spaces across the tab, I don't know what's wrong :/

         >          Repeat x3           <
E|------|--------------------------------|--------------------------------|
B|------|--------------------------------|--------------------------------|
G|------|--------------------------------|----------------2-2-------------|
D|--7\--|--2-2-5--2-2-5--2-2-5-2---------|--2-2-5--2-2-5--2-2-5-2---------|
A|--7\--|--2-2-5--2-2-5--2-2-5-2--2-2-2--|--2-2-5--2-2-5--0-0-5-2--2-2-2--|
D|--7\--|--2-2-5--2-2-5--2-2-5-2--2-2-2--|--2-2-5--2-2-5------5-2--2-2-2--|
                                  . . .                            . . .


  >                                     Repeat x2                                        
   <
E|-------------------------------------------------------------------------------------------|
B|-------------------------------------------------------------------------------------------|
G|---------------------------------------------------------------------------2-2-------------|
D|--2----------------------------2-2-5--2-2-5--2-2-5-2--2-2-2--2-2-5--2-2-5--2-2-5-2---------|
A|--2-x-x-x-x-x-x-x-x-x-x-x-x-x--2-2-5--2-2-5--2-2-5-2--2-2-2--2-2-5--2-2-5--0-0-5-2--2-2-2--|
D|--2-x-x-x-x-x-x-x-x-x-x-x-x-x--2-2-5--2-2-5--2-2-5-2--2-2-2--2-2-5--2-2-5------5-2--2-2-2--|
                                                        . . .                         . ..


E|-------------------------------------------------------|
B|-------------------------------------------------------|
G|--2-----------------------------------2----4-4-4-4-4m--|
D|--2-----------------------------------2----4-4-4-4-4m--|
A|--0----2-2-2-2-2-2-2-2-2-2-2-2-2-2-2--0----2-2-2-2-2m--|
D|-------2-2-2-2-2-2-2-2-2-2-2-2-2-2-2-------------------|
         . .   . .   .   . .   .   .

REPEAT FROM BEGINNING
_________________________________________________________________
                                                        Hold bend
E|---------------------------------------------------------------------------|
B|--12~---17~-------------------------------8-8-------8---m-8---m-8---m------|
G|-------------9--9-7--------------------10---10b(12)-(12)m-(12)m-(12)m------|
D|--------------------9-7--9p7h9p7---------------------------------------9*--|
A|---------------------------------10p7--------------------------------------|
D|---------------------------------------------------------------------------|

12p10---------------------------|
------12p10--12p10h12p10--------|
-------------------------12p9---|
--------------------------------|
--------------------------------|
--------------------------------|

E|----------------------------------------|
B|--8-------8------8-------8--------------|
G|--10b(12)---(12)-10b(12)-10b(12)---14~--|
D|----------------------------------------|
A|----------------------------------------|
D|----------------------------------------|


_______________________________________________________

E|...-----------------------------------------------------------------------------|
B|...-----------------------------------------------------------------------------|
G|...---------------------------------2----4-4-4-4-4--4-3-2-----------------------|
D|...---------------------------------2----4-4-4-4-4--4-3-2-----------------------|
A|...--2-2-2-2-2-2-2-2-2-2-2-2-2-2-2--0----2-2-2-2-2--2-1-0----2-2-2-2-2-2-2-2-2--|
D|...--2-2-2-2-2-2-2-2-2-2-2-2-2-2-2---------------------------2-2-2-2-2-2-2-2-2--|
       . .   . .   .   . .   .   .                             . .   . .   .   . .

------------------------------|
------------------------------|
------------2----4-4-4-4-4\---|
------------2----4-4-4-4-4\---|
2-2-2-2-2-2--0----2-2-2-2-2\--|
2-2-2-2-2-2-------------------|
   .   .

                                                        Hold bend
E|----------------------------------------------------------------------------|
B|--12~---17~-------------------------------8-8------m-8---m-8---m-8---m------|
G|-------------9--9-7--------------------10---10b(12)m-(12)m-(12)m-(12)m------|
D|--------------------9-7--9p7h9p7----------------------------------------9*--|
A|---------------------------------10p7---------------------------------------|
D|----------------------------------------------------------------------------|

12p10---------------------------------|
------12p10--12p10h12p10-8-------\5m--|
-------------------------10b(12)------|
--------------------------------------|
--------------------------------------|
--------------------------------------|


Legend:
\          Slide down
.          Palm-mute
x          Block string (percussive sound)
m          Mute string
b( )       Bend string (bracketed note)
*          Pinch harmonic
comments
We did not receive enough feedback on this tab! Please rate:
print report bad tab
1 2 3 4 5
I want to post or [tab]
guest
You may want to rate the tab now too:
select rating
Please do not post tabs as comments. Select "correction" instead!