Oops, an error
Loading. Please wait.

B-Movie Scream Queen Bass Tab

831 views 1 this week
2 commentsread comments
1 2 3 4 5
excellent!
x 3
add to favorites
launch autoscroll
font size
0
reset
guitar tuner
Autoscroll
slow
fast
+/-
esc
set tempo
stop
Help us to improve Ultimate-Guitar.com Take our survey!
×
B-Movie Scream Queen
Murderdolls
Beyond the Valley of the Murderdolls
Tabbed by Taylor Smith
Standard Tuning
EADG

  Intro 0:11
G|------------------------------------------------------------------------|
D|------------------------------------------------------------------------|
A|-\6-66666666666666-6-66666666666666-6-66666666666666-6-66666666666666---|
E|------------------------------------------------------------------------|
  Intro (Cont.)
G|-----------------------------------|
D|------------------6666666666666666-|
A|-----------------------------------|
E|-4-44444444444444------------------|


  Verse x2
G|---------------------------------------------------------------------|
D|---------------------------------------------------------------------|
A|-6-66666666666666-6-66666666666666-3-33333333333333------------------|
E|----------------------------------------------------6-66666666666666-|

  "she's evil and she wants to be!"
G|----------------------------------------------------------------|
D|----------------------------------------------------------------|
A|---------------6-666666666666666--------------------------------|
E|-44-44-44-4-44--------------------44-44-22-22-1-111111111111111-|

  Chorus         x3                   x1                  x3
G|------------------|--------------------|------------------|
D|------------------|--------------------|------------------|
A|-/8-8-6-6-6h8-6-3-|--------------------|-/8-8-6-6-6h8-6-3-|
E|------------------|-6-666h8p6\4-444444-|------------------|
  
  Chorus (cont.)
G|--------------------------------------------------|
D|---------------------------------6666666666666666-|
A|--------------------------------------------------|
E|--6-666h8p6\444-444-44-444-444-4/-----------------|


  Verse x2
G|---------------------------------------------------------------------|
D|---------------------------------------------------------------------|
A|-6-66666666666666-6-66666666666666-3-33333333333333------------------|
E|----------------------------------------------------6-66666666666666-|

  "she's evil and she wants to be!"
G|----------------------------------------------------------------|
D|----------------------------------------------------------------|
A|---------------6-666666666666666--------------------------------|
E|-44-44-44-4-44--------------------44-44-22-22-1-111111111111111-|


  Chorus         x3                   x1                  x3
G|------------------|--------------------|------------------|
D|------------------|--------------------|------------------|
A|-/8-8-6-6-6h8-6-3-|--------------------|-/8-8-6-6-6h8-6-3-|
E|------------------|-6-666h8p6\4-444444-|------------------|
  
  Chorus (cont.)
G|--------------------------------------------------|
D|---------------------------------6666666666666666-|
A|--------------------------------------------------|
E|--6-666h8p6\444-444-44-444-444-4/-----------------|


  Solo x4
G|-----------------------------------------------------------------------|
D|-----------------------------------------------------------------------|
A|-6-666666666-88-66-4-444444444-66-44-3333333333333333-1-1111111111-----|
E|-------------------------------------------------------------------111-|

"she's evil and she wants to be!"
G|----------------------------------------------------------------|
D|----------------------------------------------------------------|
A|---------------6-666666666666666--------------------------------|
E|-44-44-44-4-44--------------------44-44-22-22-1-111111111111111-|

  Chorus         x3                   x1                  x3                  x1
G|------------------|--------------------|------------------|--------------------|
D|------------------|--------------------|------------------|--------------------|
A|-/8-8-6-6-6h8-6-3-|--------------------|-/8-8-6-6-6h8-6-3-|--------------------|
E|------------------|-6-666h8p6\4-444444-|------------------|-6-666h8p6\4-444444-|
  
  Chorus (cont.) x3                   x1                  x3                      
G|------------------|--------------------|------------------|
D|------------------|--------------------|------------------|
A|-/8-8-6-6-6h8-6-3-|--------------------|-/8-8-6-6-6h8-6-3-|
E|------------------|-6-666h8p6\4-444444-|------------------|
  
  Chorus (cont.)
G|--------------------------------------------------|
D|---------------------------------6666666666666666-|
A|--------------------------------------------------|
E|--6-666h8p6\444-444-44-444-444-4/-----------------|
 
  Ending
G|-----------|
D|-----------|
A|-6~~-6-6~~-|
E|-----------|

The End!
Have fun
  
Suggest correction
Give kudos to tab author, rate the tab!
1 2 3 4 5
comments
print report bad tab
2 comments total.
-1 reply
Robin Graves 1,015 wrote on January 18 2007, 09:12 am

yeah. my version of this tab was pretty shitty. I figured out this exact version a couple of weeks back and wanted to see if it was right, and it is. I had just started playing bass when i tabbed my awful version.5 stars.

0 reply
AnduNeedle 6,827 wrote on August 18 2013, 05:43 am

Great tab man. This tab deserves more than 5 stars!

guest
You may want to rate the tab now too:
select rating
Please do not post tabs as comments. Select "correction" instead!