Oops, an error
Loading. Please wait.

Blood Stained Valentine Bass Tab

version 1
version 1

Whole song

Interactive

1,049 views 1 this week
1 commentread comment
1 2 3 4 5
x 3
add to favorites
launch autoscroll
font size
0
reset
guitar tuner
Autoscroll
slow
fast
+/-
esc
set tempo
stop
Help us to improve Ultimate-Guitar.com Take our survey!
×
Author
Difficulty
novice
----------------------------------------------------------------
- Blood Stained Valentine - Murderdolls
-----------------------------------------------------------------

Tabbed By : theginashia35


Tuning: Standard

Intro
G|---------------------------------------------------------------|
D|---------------------------------------------------------------|
A|---------------------------------------------------------------|
E|--55555--55555--88888--88888--33333--33333--55555--5555555/----| x3
 
Verse
G|---------------------------------------------------------------|
D|---------------------------------------------------------------|
A|---------------------------------------------------------------|
E|--55555555--88888888--33333333--55555555-----------------------|

Pre-chorus
G|---------------------------------------------------------------|
D|---------------------------------------------------------------|
A|---------------------------------------------------------------|
E|--1------------------------3-----------------------------------| 

G|---------------------------------------------------------------|
D|---------------------------------------------------------------|
A|---------------------------------------------------------------|
E|--5555335--5555555---1---------------------------3-------------|

G|---------------------------------------------------------------|
D|---------------------------------------------------------------|
A|---------------------------------------------------------------|
E|--0000000000000000---------------------------------------------|

Chorus
G|------------------------------------------------------------------------|
D|------------------------------------------------------------------------|
A|------------------------------------------------------------------------|
E|--5-55555555555555--8-88888888888888--3-33333333333333-5-55555555555555-|x2

Verse
G|---------------------------------------------------------------|
D|---------------------------------------------------------------|
A|---------------------------------------------------------------|
E|--55555-55555--88888--88888--33333--33333--55555--5555555------|x2

Pre-Chorus
G|---------------------------------------------------------------|
D|---------------------------------------------------------------|
A|---------------------------------------------------------------|
E|--1-------------------3----------------------------------------|

G|---------------------------------------------------------------|
D|---------------------------------------------------------------|
A|---------------------------------------------------------------|
E|--5555335--5555555---1------------------------3----------------|

G|---------------------------------------------------------------|
D|---------------------------------------------------------------|
A|---------------------------------------------------------------|
E|--0000000000000000---------------------------------------------|

Chorus
G|------------------------------------------------------------------------|
D|------------------------------------------------------------------------|
A|------------------------------------------------------------------------|
E|--5-55555555555555--8-88888888888888--3-33333333333333-5-55555555555555-|x3

Solo
G|------------------------------------------------------------------------|
D|------------------------------------------------------------------------|
A|------------------------------------------------------------------------|
E|--5555555555555555--8888888888888888-3333333333333333--5555555555555555-|x2

Transition
G|---------------------------------------------------------------|
D|---------------------------------------------------------------|
A|---------------------------------------------------------------|
E|--5------------8----------------3---------555555555------------|

Pre-chorus
G|---------------------------------------------------------------|
D|---------------------------------------------------------------|
A|---------------------------------------------------------------|
E|--1------------------------3-----------------------------------|

G|---------------------------------------------------------------|
D|---------------------------------------------------------------|
A|---------------------------------------------------------------|
E|--5555335-5555555--1-----------------------3-------------------|

G|---------------------------------------------------------------|
D|---------------------------------------------------------------|
A|---------------------------------------------------------------|
E|--0000000000000000---------------------------------------------|

Chorus
G|------------------------------------------------------------------------|
D|------------------------------------------------------------------------|
A|------------------------------------------------------------------------|
E|--5-55555555555555--8-88888888888888--3-33333333333333-5-55555555555555-|x2

Outro
G|---------------------------------------------------------------|
D|---------------------------------------------------------------|
A|---------------------------------------------------------------|
E|--55555--55555--88888--88888--33333--33333--55555--5555555-----|

G|---------------------------------------------------------------|
D|---------------------------------------------------------------|
A|---------------------------------------------------------------|
E|--55555--55555--88888--88888--33333--33333--55555--5535/-------|

End.

| /  slide up
| \  slide down
| h  hammer-on
| p  pull-off
| ~  vibrato
| +  harmonic
| x  Mute note
Suggest correction
Give kudos to tab author, rate the tab!
1 2 3 4 5
comments
print report bad tab
1 comment total.
0 reply
xxxxChrisTxxxx 9,431 Sep 25, 2012 03:28 PM

Drop C tuning

guest
You may want to rate the tab now too:
select rating
Wanna post a correction for this tab? Suggest correction