Oops, an error
Loading. Please wait.

Blood Stained Valentine Bass Tab

version 2
version 2

Whole song

Interactive

168 views 1 this week
no commentswrite comment
1 2 3 4 5
1 last vote to show rating
add to favorites
launch autoscroll
font size
0
reset
guitar tuner
Autoscroll
slow
fast
+/-
esc
set tempo
stop
Help us to improve Ultimate-Guitar.com Take our survey!
×
Author
Difficulty
Tuning
novice
C G C F A D
-----------------------------------------------------------------------------
                             Blood Stained Valentine - Murderdolls
-----------------------------------------------------------------------------
Tabbed by: Andu Needle
E-mail: sulfur_in_my_lungs@yahoo.com

Intro:

F|--------------------------------------------------------------|
C|--------------------------------------------------------------|
G|--------------------------------------------------------------|
C|-55555-55555-88888-88888-33333-33333-55555-55555555-----------|(x2)

Verse:

F|--------------------------------------------------------------|
C|--------------------------------------------------------------|
G|--------------------------------------------------------------|
C|-55555-55555-88888-88888-33333-33333-55555-55555555-----------|

F|--------------------------------------------------------------|
C|--------------------------------------------------------------|
G|--------------------------------------------------------------|
C|-55555555(x2)-88888888(x2)-33333333(x2)-55555555(x2)----------|

Pre chorus:

F|--------------------------------------------------------------|
C|--------------------------------------------------------------|
G|--------------------------------------------------------------|
C|-1~-3~-5555-3333-5555-5555--1~-3~-00000000(x2)----------------|

Chorus:

F|--------------------------------------------------------------|
C|--------------------------------------------------------------|
G|--------------------------------------------------------------|
C|-5-55555555-55555555-8-888888888-8888888-3-33333333-33333333--|

F|--------------------------------------------------------------|
C|--------------------------------------------------------------|
G|--------------------------------------------------------------|
C|-5-55555555-55555555------------------------------------------|

All this riff x2

Main riff again:

F|--------------------------------------------------------------|
C|--------------------------------------------------------------|
G|--------------------------------------------------------------|
C|-55555-55555-88888-88888-33333-33333-55555-55555555-----------|

Verse 2 goes like this:

F|--------------------------------------------------------------|
C|--------------------------------------------------------------|
G|--------------------------------------------------------------|
C|-55555-55555-88888-88888-33333-33333-55555-55555555-----------|

Pre chorus 2 like the first one.
Chorus 2 like the first one.

Solo:

F|--------------------------------------------------------------|
C|--------------------------------------------------------------|
G|--------------------------------------------------------------|
C|-5-55555555-55555555-8-888888888-8888888-3-33333333-33333333--|

F|--------------------------------------------------------------|
C|--------------------------------------------------------------|
G|--------------------------------------------------------------|
C|-5-55555555-55555555------------------------------------------|

As in the choruses, all this part goes twice.

Break down(the part where Wednesday screams):

F|--------------------------------------------------------------|
C|--------------------------------------------------------------|
G|--------------------------------------------------------------|
C|-5~--8~--3~-5~------------------------------------------------|

Pre chorus again, as the others.
The last chorus is the same as the others.

Ending:

F|--------------------------------------------------------------|
C|--------------------------------------------------------------|
G|--------------------------------------------------------------|
C|-55555-55555-88888-88888-33333-33333-55555-55555555-----------|

F|--------------------------------------------------------------|
C|--------------------------------------------------------------|
G|--------------------------------------------------------------|
C|-55555-55555-88888-88888-33333-33333-55555-5535~--------------|

The ending is a bit tricky in the last part. But you`ll figure it out.
Suggest correction
Give kudos to tab author, rate the tab!
1 2 3 4 5
comments
print report bad tab
guest
You may want to rate the tab now too:
select rating
Wanna post a correction for this tab? Suggest correction