Oops, an error
Loading. Please wait.

Chapel Of Blood Bass Tab

version 1
version 1

Whole song

608 views 3 this week
no commentswrite comment
1 2 3 4 5
please rate
add to favorites
launch autoscroll
font size
0
reset
guitar tuner
Tab Pro tools
  • play this tab
  • loop segment
  • change instrument
  • show fretboard
  • metronome
Autoscroll
slow
fast
+/-
esc
set tempo
stop
Contributor
Tab by:6METAL6BASSIST6

Email:Petergriffinav@gmail.com

||-----------------------------------------------------|
||-------------------------------------------4-4--4-3--|
||3---4--4-6-4-3--3-4--4-6-4-3-3-4--4-6-4-3-----------6|
||-----------------------------------------------------|

||--------------------------------------------------------| 
||----------------------------------------------4-4--4-3--|x2
||3---3-4--4-6-4-3--3-4--4-6-4-3--3-4--4-6-4-3-----------6|
||--------------------------------------------------------|

||--------------------------------------------------------|
||----------------------------------------------4-4--4-3--|
||3---3-4--4-6-4-3--3-4--4-6-4-3-3-3-3-3-3-3-3-----------6|
||--------------------------------------------------------|

||--------------|
||--------------|x8
||3---3-4--4-6-4|
||--------------|

||-------------------------------------------------------|
||-------------------------------------------------------|x3
||3-3-3-3-3-3-3-1-3-3-3-3-3-3-6-3-3-3-3-3-3-1-3-3-3-3-4-4|
||-------------------------------------------------------|

||-------------------------------------------|
||-------------------------------------------|
||3-3-3-3-3-3-3-1-3-3-3-3-3-3-6-3-3-3-3-3-3-3|
||-------------------------------------------|

||-----------|
||4-4-4-4-3--|
||----------6|
||-----------|

||--------------------------------------------------------| 
||----------------------------------------------4-4--4-3--|x2
||3---3-4--4-6-4-3--3-4--4-6-4-3--3-4--4-6-4-3-----------6|
||--------------------------------------------------------|

||-------------------------------------------------------|
||-------------------------------------------------------|x3
||3-3-3-3-3-3-3-1-3-3-3-3-3-3-6-3-3-3-3-3-3-1-3-3-3-3-4-4|
||-------------------------------------------------------|

||-------------------------------------------|
||-------------------------------------------|
||3-3-3-3-3-3-3-1-3-3-3-3-3-3-6-3-3-3-3-3-3-3|
||-------------------------------------------|

||-----------|
||4-4-4-4-3--|
||----------6|
||-----------|

||--------------------------------------------------------| 
||----------------------------------------------4-4--4-3--|x2
||3---3-4--4-6-4-3--3-4--4-6-4-3--3-4--4-6-4-3-----------6|
||--------------------------------------------------------|

||--------------|
||--------------|x3
||3---3-4--4-6-4|
||--------------|

||-----------|
||4-4-4-4-3--|
||----------6|
||-----------|

||--------------|
||--------------|x3
||3---3-4--4-6-4|
||--------------|

||-----------|
||4-4-4-4-3--|
||----------6|
||-----------|

||------------------------------|
||------------------------444444|x3
||3-3-3-3-3-3-3-3-3-3-3-3-------|
||------------------------------|

||------------------------------|
||----------------44444444444444|
||3-3-3-3-3-3-3-3---------------|
||------------------------------|

Guitar solo
||------------------------------|
||------------------------444444|x3
||3-3-3-3-3-3-3-3-3-3-3-3-------|
||------------------------------|

||------------------------------|
||----------------44444444444444|
||3-3-3-3-3-3-3-3---------------|
||------------------------------|

||-----------------------------------------------------|
||-------------------------------------------4-4--4-3--|
||3---4--4-6-4-3--3-4--4-6-4-3-3-4--4-6-4-3-----------6|
||-----------------------------------------------------|

||--------------------------------------------------------|
||----------------------------------------------4-4--4-3--|
||3---3-4--4-6-4-3--3-4--4-6-4-3-3-3-3-3-3-3-3-----------6|
||--------------------------------------------------------|

||--------------------------------------------------------| 
||----------------------------------------------4-4--4-3--|x3
||3---3-4--4-6-4-3--3-4--4-6-4-3--3-4--4-6-4-3-----------6|
||--------------------------------------------------------|

||-----------------------------------------------------------| 
||----------------------------------------------4-4--4-3-----|
||3---3-4--4-6-4-3--3-4--4-6-4-3--3-4--4-6-4-3-----------6--3|
||-----------------------------------------------------------|
comments
We did not receive enough feedback on this tab! Please rate:
print report bad tab
1 2 3 4 5
I want to post or [tab]
guest
You may want to rate the tab now too:
select rating
Please do not post tabs as comments. Select "correction" instead!