Oops, an error
Loading. Please wait.

Chapel Of Blood Bass Tab

version 2
version 2

Whole song

177 views 1 this week
no commentswrite comment
1 2 3 4 5
excellent!
x 3
add to favorites
launch autoscroll
font size
0
reset
guitar tuner
Tab Pro tools
  • play this tab
  • loop segment
  • change instrument
  • show fretboard
  • metronome
Autoscroll
slow
fast
+/-
esc
set tempo
stop
Contributor
Difficulty
Tuning
intermediate
C G C F A D
-----------------------------------------------------------------------------
                             Chapel Of Blood - Murderdolls
-----------------------------------------------------------------------------
Tabbed by: Andu Needle
E-mail: sulfur_in_my_lungs@yahoo.com

Intro:

F|------------------------------------------------------------|
C|------------------------------------------------------------|
G|------------------------------------------------------------|
C|-0~-0000-00000000(x2)-66-653-0~-0000-00000000(x2)-66-653-0~-|

You repeat this riff for like 4 times or something.

F|------------------------------------------------------------|
C|------------------------------------------------------------|
G|--------------------------------5---------------------------|
C|-01-1310-01-1310-01-1310-01-131-----------------------------|(x2)

Verse:

F|------------------------------------------------------------|
C|------------------------------------------------------------|
G|-5555-3555-8555-3~-6~(x3)-5555-3555-8555--------------------|
C|-----------------------------------------66-6530------------|

Chorus:

F|------------------------------------------------------------|
C|------------------------------------------------------------|
G|------------------------------------------------------------|
C|-01-1310-01-1310-01-1310-66-6530----------------------------|(x2)

Verse 2 is the same as the first one!
Chorus 2 is the same as the first one!

Main riff:

F|------------------------------------------------------------|
C|------------------------------------------------------------|
G|------------------------------------------------------------|
C|-0~-0000-00000000(x2)-66-653-0~-0000-00000000(x2)-66-653----|

After that 3 you go straight into the bridge!

Bridge/Solo:

F|------------------------------------------------------------|
C|------------------------------------------------------------|
G|------------------------------------------------------------|
C|-00000000-0000-0666666--------------------------------------|(x8)

Break down:

F|------------------------------------------------------------|
C|------------------------------------------------------------|
G|------------------------------------------------------------|
C|-0~-0000-00000000(x2)-66-653-0~-0000-00000000(x2)-66-6530---|

Last chorus is the same as the others!

Ending:

F|------------------------------------------------------------|
C|------------------------------------------------------------|
G|------------------------------------------------------------|
C|-0~-0000-00000000(x2)-66-653-0~-0000-00000000(x2)-66-6530---|
comments
We did not receive enough feedback on this tab! Please rate:
print report bad tab
1 2 3 4 5
I want to post or [tab]
guest
You may want to rate the tab now too:
select rating
Please do not post tabs as comments. Select "correction" instead!