Oops, an error
Loading. Please wait.

Dawn Of The Dead Tab

version 2
version 2

Whole song

Interactive

1,929 views 3 this week
4 commentsread comments
1 2 3 4 5
accurate
x 4
add to favorites
launch autoscroll
font size
0
reset
how to read this tab
guitar tuner
Tab Pro tools
  • play this tab
  • loop segment
  • change instrument
  • show fretboard
  • metronome
×
Best way to learn
"Dawn Of The Dead"
Autoscroll
slow
fast
+/-
esc
set tempo
stop
Contributor
-------------------------------------------------------------------------------
                             SONG NAME - Band Name
-------------------------------------------------------------------------------
Tabbed by:
Email:kornknot_metallica@hotmial.com

Tuning: I tabbed this song with regular tuning because I couldn't be bothered
to see if its drop d or anything. Intro - In the intro and parts of the rest
of the song they use effects similar to the ones in welcome to the strange,
but the effect is faster if you listen you can hear a guitar riff before the
bass and drums come in.

RIFF 1-used before bass & drums come in, with riff 2&chorus, verse
e|----12121212—11-11-11-11--77777777—12121212—11-11-11-------------------------|
B|-----------------------------------------------------------------------------|
G|-----------------------------------------------------------------------------|
D|-----------------------------------------------------------------------------|
A|-----------------------------------------------------------------------------|
E|-----------------------------------------------------------------------------|

e|11—--------------------------------------------------------------------------|
B|-----9999--------------------------------------------------------------------|
G|-----------------------------------------------------------------------------|
D|-----------------------------------------------------------------------------|
A|-----------------------------------------------------------------------------|
E|-----------------------------------------------------------------------------|
    Riff 2(wah pedals used) ( with wah, second time slide fret board to lead to riff 3)
e|-----------------------------------------------------------------------------|
B|-----------------------------------------------------------------------------|
G|--9999--8888--44444444------9999--8888---------------------------------------| x2
D|----------------------------------------------------66666666-----------------|
A|--7777--6666--22222222------7777--6666---------------------------------------|
E|-----------------------------------------------------44444444----------------|
Riff 3
e|-----------------------------------------------------------------------------|
B|-----------------------------------------------------------------------------|
G|-----------------------------------------------------------------------------|
D|--2-2---4--4-----6--6---4/-6-xxxxx---4--4----6--6----4/-6--\\\---------------|
A|--2-2---4--4-----6--6---4/-6-xxxxx---4--4----6--6----4/-6--\\\---------------|
E|--0-0---2--2-----4--4---2/-4-xxxxx---2--2----4--4----2/-4-\\\----------------|

e|-----------------------------------------------------------------------------|
B|-----------------------------------------------------------------------------|
G|-----------------------------------9-----11----------------------------------|
D|--4--4-----6--6----4/-6------------------------------------------------------|
A|--4--4-----6--6----4/-6---------7------9-------------------------------------|
E|--2--2-----4--4----2/-4------------------------------------------------------|
Verse 1st guitar plays,  riff 4
e|-----------------------------------------------------------------------|
B|-----------------------------------------------------------------------|
G|---9999--8888------44444444-------9999---8888--------------------------|repeat through verse
D|---9999--8888------44444444-------9999---8888----66666666--------------|
A|---7777--6666------22222222-------7777---8888----66666666--------------|
E|-------------------------------------------------------------44444444--|
Pm...........................................................................
2nd RIFF 5guitar weird effect tremelo picking
e|-----77777777-7777-77-7777-77777-77-777-7777-77-7777-7--|
B|--------------------------------------------------------|
G|--------------------------------------------------------|repeat through verse
D|--------------------------------------------------------|
A|--------------------------------------------------------|
E|--------------------------------------------------------|
Solo riff 6
e|------------------------------------------------------------------------------|
B|----------4h5p4----7---5-4h5p4p0-------4h5p4----------------------------------|
G|-------5----------5-----------------------5----------5-4----------------------|
D|------------------------------------------------------------------------------|
A|------------------------------------------------------------------------------|
E|------------------------------------------------------------------------------|
Chorus Riff 7
e|---------------------------------------------------------------------------------|
B|---------------------------------------------------------------------------------|
G|---9999--8888------44444444-------9999---8888------------------|play with riff 1-|
D|---9999--8888------44444444-------9999---8888----66666666------------------------|
A|---7777--6666------22222222-------7777---8888----66666666------------------------|
E|-------------------------------------------------------------44444444------------|
Riff 8
e|-----------------------------------------------------------------------------|
B|-----------------------------------------------------------------------------|
G|---9999--8888------44-66-44-0----9999---8888---------------------------------|
D|---9999--8888------44-66-44-0----9999---8888----66666666---------------------|
A|---7777--6666------22-66-44-2----7777---8888----66666666---------------------|
E|------------------------------------------------------------44444444---------|
RIFF 9
e|--------15---15---15--15-------------------------|
B|------b18--b18-------b18-------------------------|
G|-------------------------------------------------|
D|-------------------------------------------------|
A|-------------------------------------------------|
E|-------------------------------------------------|



Intro riff 1, bass drums
Heavy intro, riff 1, riff 2
Pre-verse riff 3
Verse -riff 4, riff 5
Pre-chorus-riff 3
Chorus-riff 7, riff 1
Riff 3
Verse 2- riff 4, riff 5
Pres chorus-riff 3
Chorus-riff 7, riff 1
Chorus 2-RIFF 8
Solo-riff 7, riff 6
Riff 3
Interlude-Riff 1
Chorus/solo, riff 7, riff 6
Both guitars- riff 6
1st guitar Finishing on Riff 3
2nd guitar finishes on riff 9

|b bend up
| /  slide up
| \  slide down
| h  hammer-on
| p  pull-off
| ~  vibrato
| +  harmonic
| x  Mute note
===============================================================================
comments
print report bad tab
4 comments total. Showing first comments.
0 reply
JamesRoot wrote on April 27 2005, 12:00 am

hey sorry guys it must of came up wrong it is 9 11

7 9


not 9 11

7 9

PLEASE RATE!!!!!

0 reply
JamesRoot wrote on April 27 2005, 12:00 am

ooohhh for gods sake it is
-9----11---
-----------
-7----9---OK!!!

0 reply
0marilynmanson0 wrote on May 17 2005, 12:00 am

awesome tab, spot on man, cept for the *** up

I want to post or [tab]
guest
You may want to rate the tab now too:
select rating
Please do not post tabs as comments. Select "correction" instead!