Oops, an error
Loading. Please wait.

Dawn Of The Dead Tab

version 4
version 4

Whole song

Interactive

475 views 1 this week
no commentswrite comment
1 2 3 4 5
please rate
add to favorites
launch autoscroll
font size
0
reset
how to read this tab
guitar tuner
Tab Pro tools
  • play this tab
  • loop segment
  • change instrument
  • show fretboard
  • metronome
×
Best way to learn
"Dawn Of The Dead"
Autoscroll
slow
fast
+/-
esc
set tempo
stop
Contributor
Difficulty
Tuning
intermediate
C G C F A D
-----------------------------------------------------------------------------
                       Murderdolls - Dawn of the Dead
-----------------------------------------------------------------------------

Tabbed by: Metalrock4ever

Tuning:CGCFAD

Intro:
D|---------------|
A|-7-6----7-6----|
F|-----6~--------|
C|------------8~-|
G|---------------|
C|---------------|

Rhythm Guitar:
(Listen to music for rhythm)
D|--------------------------------------------|
A|--------------------------------------------|
F|--------------------------------------------|
C|-4-6-6-6-4-88-6-8-xxxx-4-6-6-6-4-88-6-8-15\-|
G|-4-6-6-6-4-88-6-8-xxxx-4-6-6-6-4-88-6-8-15\-|
C|-4-6-6-6-4-88-6-8-xxxx-4-6-6-6-4-88-6-8-15\-|

D|------------------------------------------|
A|------------------------------------------|
F|------------------11-11-11-11-13-13-13-13-|
C|-4-6-6-6-4-88-6-8-11-11-11-11-13-13-13-13-|
G|-4-6-6-6-4-88-6-8-9--9--9--9--11-11-11-11-|
C|-4-6-6-6-4-88-6-8-------------------------|

Solo Part:
D|-------|
A|-7~-9~-|
F|-------|
C|-------|
G|-------|
C|-------|


Verse: 
(Other guitar plays some sort of sound effects...)
D|---------------|
A|-7-6----7-6----|
F|-----6~--------|
C|------------8~-|  x2
G|---------------|
C|---------------|


Pre-Chorus:
D|--------------------------------------------|
A|--------------------------------------------|
F|--------------------------------------------|
C|-4-6-6-6-4-88-6-8-xxxx-4-6-6-6-4-88-6-8-15\-|
G|-4-6-6-6-4-88-6-8-xxxx-4-6-6-6-4-88-6-8-15\-|
C|-4-6-6-6-4-88-6-8-xxxx-4-6-6-6-4-88-6-8-15\-|

D|------------------------------------------|
A|------------------------------------------|
F|------------------11-11-11-11-13-13-13-13-|
C|-4-6-6-6-4-88-6-8-11-11-11-11-13-13-13-13-|
G|-4-6-6-6-4-88-6-8-9--9--9--9--11-11-11-11-|
C|-4-6-6-6-4-88-6-8-------------------------|


Solo Part:
D|-------|
A|-7~-9~-|
F|-------|
C|-------|
G|-------|
C|-------|


Chorus:
D|-----------------------|
A|-----------------------|
F|-------6666-------3333-|
C|-44-33-6666-44-33-3333-|  x2
G|-44-33-4444-44-33-1111-|
C|-44-33------44-33------|

Solo Part:
D|---------------|
A|-7-6----7-6----|
F|-----6~--------|
C|------------8~-|  x2
G|---------------|
C|---------------|


Pre-Verse:
D|--------------------------------------------|
A|--------------------------------------------|
F|--------------------------------------------|
C|-4-6-6-6-4-88-6-8-xxxx-4-6-6-6-4-88-6-8-15\-|
G|-4-6-6-6-4-88-6-8-xxxx-4-6-6-6-4-88-6-8-15\-|
C|-4-6-6-6-4-88-6-8-xxxx-4-6-6-6-4-88-6-8-15\-|

D|------------------------------------------|
A|------------------------------------------|
F|------------------11-11-11-11-13-13-13-13-|
C|-4-6-6-6-4-88-6-8-11-11-11-11-13-13-13-13-|
G|-4-6-6-6-4-88-6-8-9--9--9--9--11-11-11-11-|
C|-4-6-6-6-4-88-6-8-------------------------|

Solo Part:
D|-------|
A|-7~-9~-|
F|-------|
C|-------|
G|-------|
C|-------|


Verse 2: 
(Other guitar plays some sort of sound effects...)
D|---------------|
A|-7-6----7-6----|
F|-----6~--------|
C|------------8~-|  x2
G|---------------|
C|---------------|


Pre-Chorus:
D|--------------------------------------------|
A|--------------------------------------------|
F|--------------------------------------------|
C|-4-6-6-6-4-88-6-8-xxxx-4-6-6-6-4-88-6-8-15\-|
G|-4-6-6-6-4-88-6-8-xxxx-4-6-6-6-4-88-6-8-15\-|
C|-4-6-6-6-4-88-6-8-xxxx-4-6-6-6-4-88-6-8-15\-|

D|------------------------------------------|
A|------------------------------------------|
F|------------------11-11-11-11-13-13-13-13-|
C|-4-6-6-6-4-88-6-8-11-11-11-11-13-13-13-13-|
G|-4-6-6-6-4-88-6-8-9--9--9--9--11-11-11-11-|
C|-4-6-6-6-4-88-6-8-------------------------|

Solo Part:
D|-------|
A|-7~-9~-|
F|-------|
C|-------|
G|-------|
C|-------|


Chorus 2:
D|-----------------------|
A|-----------------------|
F|-------6666-------3333-|
C|-44-33-6666-44-33-3333-|  x2
G|-44-33-4444-44-33-1111-|
C|-44-33------44-33------|

D|--------------------------|
A|--------------------------|
F|-------6-8-6-3-------3333-|
C|-44-33-6-8-6-3-44-33-3333-|  x2
G|-44-33-4-6-4-1-44-33-1111-|
C|-44-33---------44-33------|


Solo Part:
D|---------------|
A|-7-6----7-6----|
F|-----6~--------|
C|------------8~-|  x2
G|---------------|
C|---------------|

D|----------------------------------------|
A|-7-6---------7-6-----7-6---------7-6----|
F|-----6-8-6---------------6-8-6-------6~-|
C|-----------8-----8~------------8--------|
G|----------------------------------------|
C|----------------------------------------|


Bridge:
D|-----------------------|
A|-----------------------|
F|-------6666-------3333-|
C|-44-33-6666-44-33-3333-|  x2
G|-44-33-4444-44-33-1111-|
C|-44-33------44-33------|

Solo Part 1:
D|-----------------------------------------------------------------|
A|-6h7-6~-9-77-6-7-6----6h7-6-----6h7-6~-9-77-6-7-6----6h7-6-------|
F|-------------------6~-----------------------------6~-------------|
C|----------------------------8~--------------------------------8~-|
G|-----------------------------------------------------------------|
C|-----------------------------------------------------------------|

Solo Part 2:
(Listen to the music to hear this part)
D|-4h6-4---------------4h6-4----4h6-4---------------4h6-4----|
A|-------9-77-6-7-6-------------------9-77-6-7-6-------------|
F|------------------6~-------3~------------------6~-------3~-|
C|-----------------------------------------------------------|
G|-----------------------------------------------------------|
C|-----------------------------------------------------------|


Pre-Chorus:
D|--------------------------------------------|
A|--------------------------------------------|
F|--------------------------------------------|
C|-4-6-6-6-4-88-6-8-xxxx-4-6-6-6-4-88-6-8-15\-|
G|-4-6-6-6-4-88-6-8-xxxx-4-6-6-6-4-88-6-8-15\-|
C|-4-6-6-6-4-88-6-8-xxxx-4-6-6-6-4-88-6-8-15\-|

D|------------------------------------------|
A|------------------------------------------|
F|------------------11-11-11-11-13-13-13-13-|
C|-4-6-6-6-4-88-6-8-11-11-11-11-13-13-13-13-|
G|-4-6-6-6-4-88-6-8-9--9--9--9--11-11-11-11-|
C|-4-6-6-6-4-88-6-8-------------------------|

Solo Part:
D|-------|
A|-7~-9~-|
F|-------|
C|-------|
G|-------|
C|-------|


Final Chorus:
(Listen to music to how to play this part. Play notes with singer)
D|---------------|
A|-7-6----7-6----|
F|-----6~--------|
C|------------8~-|  x2
G|---------------|
C|---------------|

Then...
D|-----------------------|
A|-----------------------|
F|-------6666-------3333-|
C|-44-33-6666-44-33-3333-|  x2
G|-44-33-4444-44-33-1111-|
C|-44-33------44-33------|

D|--------------------------|
A|--------------------------|
F|-------6-8-6-3-------3333-|
C|-44-33-6-8-6-3-44-33-3333-|  x2
G|-44-33-4-6-4-1-44-33-1111-|
C|-44-33---------44-33------|

Solo Part 1:
D|-----------------------------------------------------------------|
A|-6h7-6~-9-77-6-7-6----6h7-6-----6h7-6~-9-77-6-7-6----6h7-6-------|
F|-------------------6~-----------------------------6~-------------|
C|----------------------------8~--------------------------------8~-|  x2
G|-----------------------------------------------------------------|
C|-----------------------------------------------------------------|

Solo Part 2:
(Listen to the music to hear this part)
D|-4h6-4---------------4h6-4----4h6-4---------------4h6-4----|
A|-------9-77-6-7-6-------------------9-77-6-7-6-------------|
F|------------------6~-------3~------------------6~-------3~-|
C|-----------------------------------------------------------|   x2
G|-----------------------------------------------------------|
C|-----------------------------------------------------------|


Outro:
D|--------------------------------------------|
A|--------------------------------------------|
F|--------------------------------------------|
C|-4-6-6-6-4-88-6-8-xxxx-4-6-6-6-4-88-6-8-15\-|
G|-4-6-6-6-4-88-6-8-xxxx-4-6-6-6-4-88-6-8-15\-|
C|-4-6-6-6-4-88-6-8-xxxx-4-6-6-6-4-88-6-8-15\-|

D|-------------------------------------|
A|-------------------------------------|
F|-------------------------------------|
C|-4-6-6-6-4-88-6-8--4-6-6-6-4-88-6-8\-|
G|-4-6-6-6-4-88-6-8--4-6-6-6-4-88-6-8\-|
C|-4-6-6-6-4-88-6-8--4-6-6-6-4-88-6-8\-|

************************************

| /   slide up
| \   slide down
| h   hammer-on
| ~   vibrato
| x   Mute note
| b   Bend

************************************

If you have any comments/corrections, please say in either the comments box or leave me 
a message.
Good luck and enjoy!
comments
We did not receive enough feedback on this tab! Please rate:
print report bad tab
1 2 3 4 5
I want to post or [tab]
guest
You may want to rate the tab now too:
select rating
Please do not post tabs as comments. Select "correction" instead!