Oops, an error
Loading. Please wait.

Dead In Hollywood Bass Tab

version 1
version 1

Whole song

Interactive

3,922 views 6 this week
1 commentread comment
1 2 3 4 5
excellent!
x 6
add to favorites
launch autoscroll
font size
0
reset
guitar tuner
Autoscroll
slow
fast
+/-
esc
set tempo
stop
Help us to improve Ultimate-Guitar.com Take our survey!
×
Author
Difficulty
intermediate
BASS
MURDERDOLLS
DEAD IN HOLLYWOOD
ALBUM-BEYOND THE VALLEY

TABBED BY BMILNE
EADG

INTRO
G-----------|
D-----------|
A-----------|
E-13\-------|

RIFF
G----------------------|
D----------------------|
A----------------------|
E--0-0-1-0--0-0-1-0----|

RIFF
G------------------------|
D------------------------|
A------------------------|
E-0-0-1-0--0-0--0-0-1-0--|

RIFF
G----------------------------|
D----------------------------|
A----------------------------|
E-0-0-1-3-3-3-3-2-2-1-1------|

RIFF
G----------------------------------------------------|
D----------------------------------------------------|
A-----3-3--------------7-7\-2-2--10-10-10-10-8-8-----|
E-0-0-----3-3--3-5-6---------------------------------|

RIFF-PRE SOLO
G--------------------|
D--------------------|
A--------------------|
E-0-0-0-0-0-0-0-0-0--|

RIFF-SOLO
G----------------------------------------------------------|
D----------------------------------------------------------|
A----------------------------------------------------------|
E-3-3-3-3-3-3-3-3-2-2-2-2-1-1-1-1--0-0-1-0--0-0--0-0-1-0---|

END
G-----------|
D-----------|
A-----------|
E-0-0-1-0---|
Suggest correction
comments
print report bad tab
1 comment total.
0 reply
oh... THAT guy 272 wrote on November 18 2006, 01:15 pm

good, well done

guest
You may want to rate the tab now too:
select rating
Please do not post tabs as comments. Select "correction" instead!