Oops, an error
Loading. Please wait.

Dead In Hollywood Bass Tab

version 2
version 2

Whole song

Interactive

824 views 3 this week
no commentswrite comment
1 2 3 4 5
please rate
add to favorites
launch autoscroll
font size
0
reset
guitar tuner
Autoscroll
slow
fast
+/-
esc
set tempo
stop
Help us to improve Ultimate-Guitar.com Take our survey!
×
Dead in Hollywood
Murderdolls
"Beyond the Valley of the Murderdolls"
Tabbed by Taylor Smith


This song is really easy and repetitive...

  Verse 1   0:00
G|---------------------------------------------------------------------------|
D|---------------------------------------------------------------------------|
A|---------------------------------------------------------------------------|
E|-15\--00-1-0---00-1-0---00-1-0---00-1-0---00-1-0---00-1-0---00-1-0---------|

G|---------------------------------------------------------------------------|
D|---------------------------------------------------------------------------|
A|---------------------------------------------------------------------------|
E|-00-1-0---00-1-0---00-1-0---00-1-0---00-1-0-0/12\0-------------------------|
 
  Verse 2   0:18
G|---------------------------------------------------------------------------|
D|---------------------------------------------------------------------------|
A|---------------------------------------------------------------------------|
E|--00-1-0-0-0----00-1-0-0-0----00-1-0-0-0----00-1-0-0-0----00-1-0-0-0-------|

G|---------------------------------------------------------------------------|
D|---------------------------------------------------------------------------|
A|---------------------------------------------------------------------------|
E|--00-1-0-0-0----00-1-0-0-0---00-1-0-0-0------------------------------------|

  Chorus    0:29
G|---------------------------------------------------------------------------|
D|---------------------------------------------------------------------------|
A|---------------------------------------------------------------------------|
E|-0/33333333-2222-1111-00-1-0-0-0---00-1-0-0-0---0/33333333-2222-1111-------|

  Verse 3   0:38
G|---------------------------------------------------------------------------|
D|---------------------------------------------------------------------------|
A|---------------------------------------------------------------------------|
E|--00-1-0--00-1-0-0-0--00-1-0--00-1-0--00-1-0--00-1-0--00-1-0--00-1-0-------|

G|---------------------------------------------------------------------------|
D|---------------------------------------------------------------------------|
A|---------------------------------------------------------------------------|
E|--00-1-0--00-1-0--00-1-0--00-1-0---0/12\0----------------------------------|

  Verse 4   0:56
G|---------------------------------------------------------------------------|
D|---------------------------------------------------------------------------|
A|---------------------------------------------------------------------------|
E|--00-1-0-0-0----00-1-0-0-0----00-1-0-0-0----00-1-0-0-0----00-1-0-0-0-------|

G|---------------------------------------------------------------------------|
D|---------------------------------------------------------------------------|
A|---------------------------------------------------------------------------|
E|--00-1-0-0-0----00-1-0-0-0---00-1-0-0-0------------------------------------|

  Chorus    1:07
G|---------------------------------------------------------------------------|
D|---------------------------------------------------------------------------|
A|---------------------------------------------------------------------------|
E|-0/33333333-2222-1111-00-1-0-0-0---00-1-0-0-0---0/33333333-2222-1111-------|

  Bridge    1:16
        x1                                                                 x2
G|--------|------------------------------------------------------------------|
D|--------|------------------------------------------------------------------|
A|--------|-----3-33--------------77\-2-2--10-1010-10-8-8--------------------|
E|-0/12\0-|-0-0------3-33-5-6------------------------------------------------|

  Presolo   1:27
G|---------------------------------------------------------------------------|
D|---------------------------------------------------------------------------|
A|---------------------------------------------------------------------------|
E|--00-1-0--00-1-0--0/12\0--00-1-0000000000000-------------------------------|

  Solo      1:34
G|---------------------------------------------------------------------------|
D|---------------------------------------------------------------------------|
A|---------------------------------------------------------------------------|
E|-0/33333333-2222-1111-00-1-0-0-0---00-1-0-0-0---0/33333333-2222-1111-------|

G|--------------------------|
D|--------------------------|
A|--------------------------|
E|-00-1-0-0-0---00-1-0-0-0--|

  Chorus    1:46
G|---------------------------------------------------------------------------|
D|---------------------------------------------------------------------------|
A|---------------------------------------------------------------------------|
E|-0/33333333-2222-1111-00-1-0-0-0---00-1-0-0-0---0/33333333-2222-1111-------|

  Postchorus    1:53
        x1                                                                 x4
G|--------|------------------------------------------------------------------|
D|--------|------------------------------------------------------------------|
A|--------|-----3-33--------------77\-2-2--10-1010-10-8-8--------------------|
E|-0/12\0-|-0-0------3-33-5-6------------------------------------------------|

  Ending   2:16 
            x7       x1
G|------------|--------|
D|------------|--------|
A|------------|--------|
E|-00-1-0-0-0-|-00-1-0-|


| /  slide up
| \  slide down
| h  hammer-on
| p  pull-off
| ~  vibrato
| +  harmonic
| x  Mute note
Suggest correction
Give kudos to tab author, rate the tab!
1 2 3 4 5
comments
print report bad tab
guest
You may want to rate the tab now too:
select rating
Please do not post tabs as comments. Select "correction" instead!