Oops, an error
Loading. Please wait.

Dead In Hollywood Tab

version 2
version 2

Whole song

Interactive

2,746 views 1 this week
2 commentsread comments
1 2 3 4 5
please rate
add to favorites
launch autoscroll
font size
0
reset
how to read this tab
guitar tuner
Tab Pro tools
  • play this tab
  • loop segment
  • change instrument
  • show fretboard
  • metronome
×
Best way to learn
"Dead In Hollywood"
Autoscroll
slow
fast
+/-
esc
set tempo
stop
Contributor
Difficulty
intermediate
Hi, I'm not to sure who played the lead and rythem but i'm Presuming by the video it's Joey.
And Acey on the backing.

Standerd Tuning (eBGDAE)

[Opening]
e---------------------------------|
B---------------------------------| [Acey]
G---------------------------------|
D-2-2-3-2-------------------------| [Rythem]
A-2-2-3-2-------------------------|
E-0-0-1-0-------------------------| x12


e-12-12-12-12-12-12-12-12-12-12-12--|
B-17-17-17-17-17-17-17-17-17-17-17--| [joey]
G-----------------------------------| [You'll Have to work out the rythem though.]
D-----------------------------------| [lead]
A-----------------------------------|
E-----------------------------------| x4

e---------------------------------|
B---------------------------------| [Acey]
G---------------------------------|
D-2-2-3-2--2-2-3-2-2--------------| [Rythem]
A-2-2-3-2--2-2-3-2-2--------------|
E-0-0-1-0--0-0-1-0-0--------------| x4

e-----------------------------------------|
B-----------------------------------------|
G-----------------------------------------| [Acey]
D-5-5-5-5-5-5-5-5-4-4-4-4-3-3-3-3-2-2-2-2-|
A-5-5-5-5-5-5-5-5-4-4-4-4-3-3-3-3-2-2-2-2-| [Rythem]
E-3-3-3-3-3-3-3-3-2-2-2-2-1-1-1-1-0-0-0-0-|


e-15-15-15-15-14-14-14-14-13-13-13-13-12-12-|
B-------------------------------------------| [joey]
G-------------------------------------------| [Same as Acey's rythem]
D-------------------------------------------| [lead]
A-------------------------------------------|
E-------------------------------------------|

e---------------------------------|
B---------------------------------|
G---------------------------------|
D-2-2-3-2--2-2--------------------| [Acey]
A-2-2-3-2--2-2--------------------| [Rythem]
E-0-0-1-0--0-0--------------------| x2


e-12-12-12-12-12-12-12-12-12-12-12-|
B-17-17-17-17-17-17-17-17-17-17-17-| [joey]
G----------------------------------|
D----------------------------------| [lead]
A----------------------------------|
E----------------------------------|


e-15-15-15-15-14-14-14-14-13-13-13-13-12-12-|
B-------------------------------------------| [joey]
G-------------------------------------------| [Same as Acey's rythem]
D-------------------------------------------| [lead]
A-------------------------------------------|
E-------------------------------------------|

e---------------------------------|
B---------------------------------|
G---------------------------------|
D-5-5-5-5-5-5-5-5-4-4-4-4-3-3-3-3-| [Acey]
A-5-5-5-5-5-5-5-5-4-4-4-4-3-3-3-3-|
E-3-3-3-3-3-3-3-3-2-2-2-2-1-1-1-1-|


e---------------------------------|
B---------------------------------|
G---------------------------------|
D-2-2-3-2--2-2--------------------| [Acey]
A-2-2-3-2--2-2--------------------| [Rythem]
E-0-0-1-0--0-0--------------------| x2


e-12-12-12-12-12-12-12-12-12-12-12-|
B-17-17-17-17-17-17-17-17-17-17-17-| [joey]
G----------------------------------|
D----------------------------------| [lead]
A----------------------------------|
E----------------------------------|

e---------------------------------|
B---------------------------------| [Acey]
G---------------------------------|
D-2-2-3-2-------------------------| [Rythem]
A-2-2-3-2-------------------------|
E-0-0-1-0-------------------------| x12


e-12-12-12-12-12-12-12-12-12-12-12--|
B-17-17-17-17-17-17-17-17-17-17-17--| [joey]
G-----------------------------------| [You'll Have to work out the rythem though.]
D-----------------------------------| [lead]
A-----------------------------------|
E-----------------------------------| x4

e---------------------------------|
B---------------------------------| [Acey]
G---------------------------------|
D-2-2-3-2--2-2-3-2-2--------------| [Rythem]
A-2-2-3-2--2-2-3-2-2--------------|
E-0-0-1-0--0-0-1-0-0--------------| x4

e-----------------------------------------|
B-----------------------------------------|
G-----------------------------------------| [Acey]
D-5-5-5-5-5-5-5-5-4-4-4-4-3-3-3-3-2-2-2-2-|
A-5-5-5-5-5-5-5-5-4-4-4-4-3-3-3-3-2-2-2-2-| [Rythem]
E-3-3-3-3-3-3-3-3-2-2-2-2-1-1-1-1-0-0-0-0-|


e-15-15-15-15-14-14-14-14-13-13-13-13-12-12-|
B-------------------------------------------| [joey]
G-------------------------------------------| [Same as Acey's rythem]
D-------------------------------------------| [lead]
A-------------------------------------------|
E-------------------------------------------|

e---------------------------------|
B---------------------------------|
G---------------------------------|
D-2-2-3-2--2-2--------------------| [Acey]
A-2-2-3-2--2-2--------------------| [Rythem]
E-0-0-1-0--0-0--------------------| x2


e-12-12-12-12-12-12-12-12-12-12-12-|
B-17-17-17-17-17-17-17-17-17-17-17-| [joey]
G----------------------------------|
D----------------------------------| [lead]
A----------------------------------|
E----------------------------------|


e-15-15-15-15-14-14-14-14-13-13-13-13-12-12-|
B-------------------------------------------| [joey]
G-------------------------------------------| [Same as Acey's rythem]
D-------------------------------------------| [lead]
A-------------------------------------------|
E-------------------------------------------|

e---------------------------------|
B---------------------------------|
G---------------------------------|
D-5-5-5-5-5-5-5-5-4-4-4-4-3-3-3-3-|
A-5-5-5-5-5-5-5-5-4-4-4-4-3-3-3-3-|
E-3-3-3-3-3-3-3-3-2-2-2-2-1-1-1-1-|


e---------------------------------|
B---------------------------------|
G---------------------------------|
D-2-2-3-2--2-2--------------------| [Acey]
A-2-2-3-2--2-2--------------------| [Rythem]
E-0-0-1-0--0-0--------------------| x2


e-12-12-12-12-12-12-12-12-12-12-12-|
B-17-17-17-17-17-17-17-17-17-17-17-| [joey]
G----------------------------------|
D----------------------------------| [lead]
A----------------------------------|
E----------------------------------|


[Chorus]
------------------- -----------------------\-----|
B------------------------------------------------|                        \
G----2-------------------------------------------|                         \
D-2--2--5-5-5-5-7-8- [Joey and Acey--------------|          \
A-2--0--5-5-5-5-7-8------------------------------|                           \
E-0-0-0-3-3-3-3-5-6------------------------------|                            \
                                                 \
-------------------------------------------------- played 2ce-|
e-------------------------------------------------------------|                           /
B-------------------------------------------------------------|                          /
G-9--------12~--------     [Joey and Acey---------------------|     /
D-9--10-10-12~------------------------------------------------|                        /
A-7--10-10-10~------------------------------------------------|                       /
E----8--8------------- ---------------------------------------|


e----------------------------------|
B----------------------------------|
G----------------------------------| [Acey]
D-2-2-3-2-----2-2-3-2--------------|
A-2-2-3-2-----2-2-3-2--------------| [Rythem]
E-0-0-1-0-----0-0-1-0--------------| x2

e---------------------------------|
B---------------------------------|
G---------------------------------|
D-5-5-5-5-5-5-5-5-4-4-4-4-3-3-3-3-| [Rythem]
A-5-5-5-5-5-5-5-5-4-4-4-4-3-3-3-3-| [Acey]
E-3-3-3-3-3-3-3-3-2-2-2-2-1-1-1-1-|

e--------------------------------------------------------------------------|
B--------------------------------------------------------------------------|
G--------------------------------------------------------------------------|
D-2-2-3-2--2-2-------------------------------------------------------------| [Acey]
A-2-2-3-2--2-2-------------------------------------------------------------| [Rythem]
E-0-0-1-0--0-0-------------------------------------------------------------|
|--------------------------------------------------------------------------|
|--------------------------------------------------------------------------|
|-7b-7b-7b-7b-7b-7b-6b-6b-6b-5b-5b-5b--------------------------------------|
|---------------------------------------8b---5h7p5-------------------------| Joey
|----------------------------------------------------7--*5-*4-*3-----------|
|-----------------------------------------------------------------*6b--*3--|

|-------------------------------------------------------------------------------------12-15--|
|-------------------------------------------------------------------------------12-15--------|
|-------------------14b---------------------------------------------------12-14--------------|
|-------------12-14-----------14-12-14-----------------------------12-14---------------------|
|-------12-14---------------------------12-14----------------12-14---------------------------|
|5/12-14---------------------------------------12-14---12-14---------------------------------|[joey]
PM................                                [Stop Tremlo pick]
[Tremlo picked (basicly 4 picks for each number]


|--12-15p-------12-15p------12-15p---------------------------------------------|
|---------12-15p------12-15p--------12-15p-------------------------------------|
|------------------------------------------12-14-------------------------------|
|------------------------------------------------12-14-------------------12--14| Joey
|------------------------------------------------------12-14-------12-14-------|
|------------------------------------------------------------12-14-------------|

e---------------------------------|
B---------------------------------|
G---------------------------------|
D-5-5-5-5-5-5-5-5-4-4-4-4-3-3-3-3-| [Rythem]
A-5-5-5-5-5-5-5-5-4-4-4-4-3-3-3-3-| [Acey]
E-3-3-3-3-3-3-3-3-2-2-2-2-1-1-1-1-|

e---------------------------------|
B---------------------------------|
G---------------------------------|
D-2-2-3-2--2-2--------------------| [Acey]
A-2-2-3-2--2-2--------------------| [Rythem]
E-0-0-1-0--0-0--------------------|

Chorus]
------------------- -----------------------\-----|
B------------------------------------------------|                        \
G----2-------------------------------------------|                         \
D-2--2--5-5-5-5-7-8- [Joey and Acey--------------|          \
A-2--0--5-5-5-5-7-8------------------------------|                           \
E-0-0-0-3-3-3-3-5-6------------------------------|                            \
                                                 \
-------------------------------------------------- played 2ce-|
e-------------------------------------------------------------|                           /
B-------------------------------------------------------------|                          /
G-9--------12~--------     [Joey and Acey---------------------|     /
D-9--10-10-12~------------------------------------------------|                        /
A-7--10-10-10~------------------------------------------------|                       /
E----8--8------------- ---------------------------------------|


e---------------------------------|
B---------------------------------| [Acey & Joey ]
G---------------------------------|
D-2-2-3-2--2-2-3-2-2--------------| [Rythem]
A-2-2-3-2--2-2-3-2-2--------------|
E-0-0-1-0--0-0-1-0-0--------------| x4

Any questions email me at : Bobyjones2004@hotmail.com

or add ^_^
comments
We did not receive enough feedback on this tab! Please rate:
print report bad tab
1 2 3 4 5
2 comments total.
0 reply
Zephon wrote on February 28 2007, 10:08 am

the solo seems more correct than the other tab, the other one cuts short i think

+1 reply
FIGJAMpAnAnAz wrote on March 16 2011, 02:02 am

Wrong, Joey plays rythm and Acey plays lead, but most people wont notice, but im just throwing it out there

I want to post or [tab]
guest
You may want to rate the tab now too:
select rating
Please do not post tabs as comments. Select "correction" instead!